New York Minute

Eagles


| Ultimate Guitar Tabs Archive - your #1 source for tabs! | | http://www.ultimate-guitar.com/ | | | | Over 200,000 guitar, guitar pro and bass tabs! Also lessons, news, | | columns and guitar forums! |
Artist: Eagles Song: New York Minute
Song: New York Minute Artist: Eagles (Also Don Henley...) Tabbed by: Timmy Morrison E-mail: bass_bassist@hotmail.com
Bass: 4-string fretless Tuning: G, D, A, E
Intro: |--10-/-12-15-12~-|-------------------------|---------------|-----| |-----------------|-15-13-12-13-15----------|---------------|-----| |-----------------|-----------------13-/-15-|-8-h-9-p-8-6---|-----| |-----------------|-------------------------|-------------8-|-8-\-|
Verse 1: |---|---|-------|---------|-----8-7-------|-------|-------|----------8-----| |---|---|-8-\---|---------|---------10~---|-------|-------|-------10---10~-| |---|---|-------|---------|--10-----------|-------|-------|---/-10---------| |-4-|-6-|-----4-|-6-/-8-6-|-------------8-|-3-3-4-|-5-5-7-|-8--------------|
|---|--------------|-12~13--------|---------|-------|-8-7--------|-----|-----| |---|---6----------|-------13-----|---------|-8-/10-|-----10-8-5-|-----|-----| |---|-6------------|----------11~-|---------|-------|------------|-----|-----| |-4-|-----6-/-8-6~-|--------------|-6-/-8-6-|-----8-|------------|-4-5-|-7-8-|
|---------15-17-15----------| |-15-/-17----------17-15----| |------------------------15-| |---------------------------|
Chorus: |---|-----|---|-----|-----------|---------------|---|-----|-------|-----------| |---|-----|---|-----|-----------|---8-6---------|---|-----|-------|-----------| |---|-----|---|-----|-----------|-6-----8-6-----|---|-----|-------|-----6-----| |-3-|-3-4-|-4-|-6-8-|-3-4-/-6-4-|-----------6-8-|-3-|-3-4-|-4-6-8-|-3-6---3-4-|
|----------------| |--8-6-----------| |6-----8-6-------| |----------6-8-\-|
Verse 2: |---|-8-p-7~---|-7-\-5~-|---------|-7-h-8-p-7-------------|-------|---|---|---|---|---| |---|----------|--------|---------|-----------8--------9~-|-9-----|---|---|---|---|---| |---|--------5-|--------|---------|-------------8-/-10----|---9---|---|---|---|---|---| |-4-|----------|--------|-6-/-8-6-|-----------------------|-----7-|-3-|-4-|-5-|-7-|-8-|
|-12-p-10-9-10-/-12-8----| |---------------------10-| |------------------------| |------------------------|
Chorus: |---|-----|---|-----|-----------|---------------|---|-----|---------| |---|-----|---|-----|-----------|---8-6---------|---|-----|---------| |---|-----|---|-----|-----------|-6-----8-6-----|---|-----|---------|
|-3-|-3-4-|-4-|-6-8-|-3-4-/-6-4-|-----------6-8-|-3-|-3-4-|-4-6-8-\-|
Bridge: G---|------------|---------------------|---------|-7-h-8-p-7--------------|---------| D---|-6-5-3------|---5-----------------|---6-5-3-|-----------8--------10~-|-10------| A---|--------5-3-|-------5-6-3---0-3---|---------|-------------8-/-10-----|----10---| E-1-|------------|-3-----------------3-|-1-------|------------------------|-------8-| |-------|------------|-------|-------|----| |-------|------------|-------|-------|----| |---3---|-----3-1----|-8-7-5-|-3-----|-3~-| |-3---3-|-1-3-----4--|-------|---5-3-|----|
Solo-thingy: |-12-15-----------|-----------| |-------12-15-----|-----------| |-------------15~-|-10-8-7----| |-----------------|--------8~-|
|--------7-8-|------8-/-10-8-|------7-8-|------8-/-10-8-|-----| |------------|---------------|----------|---------------|-----| |-----10-----|---10----------|---10-----|---10----------|-----| |---8--------|-8-------------|-8--------|-8-------------|-8-\-|
Verse 3: |---|---|---|---------|-7-h-8-p-7--------------|--------|---|---|---|---|----------| |---|---|---|---------|-----------8--------10~-|-10-----|---|---|---|---|----------| |---|---|---|---------|-------------8-/-10-----|---10---|---|---|---|---|----------| |-4-|-6-|-4-|-6-/-8-6-|------------------------|------8-|-3-|-4-|-5-|-7-|-8-/-11-8-|
|----------------|---|-------|-------|---------7-h-8-p-7--------------|---------| |--------8-/-10~-|---|-6-/-8-|-8-\-6-|-------------------8--------10~-|-10------| |------6---------|---|-------|-------|---------------------8-/-10-----|----10---| |-8-10-----------|-4-|-----6-|-----4-|-6-/-8-6------------------------|-------8-|
|---|---|---|---|---|---------15-17-15----------| |---|---|---|---|---|-15-/-17----------17-15----| |---|---|---|---|---|------------------------15-| |-3-|-4-|-5-|-7-|-8-|---------------------------|
Chorus: |---|-----|---|-----|-----------|---------------|---|-----|-------|-----------| |---|-----|---|-----|-----------|---8-6---------|---|-----|-------|-----------| |---|-----|---|-----|-----------|-6-----8-6-----|---|-----|-------|-----6-----| |-3-|-3-4-|-4-|-6-8-|-3-4-/-6-4-|-----------6-8-|-3-|-3-4-|-4-6-8-|-3-6---3-4-|
|--------------| |--8-6---------| |6-----8-6-----| |----------6-8-|
|---|-----|--------------|---|-----------|---|-----|-----------| |---|-----|--8-6---------|---|-----------|---|-----|-----6-----| |---|-----|6-----8-6-----|---|-----------|---|-----|---6-------| |-3-|-3-4-|----------6-8-|-3-|-3-4-/-6-4-|-4-|-6-8-|-3-----3-4-|
|-----------------| |--8-6------------| |6-----8-6--------| |----------6-8~-\-|
END
+--------------------------------------------------------------------------+ | This file is the author's own work and represents their interpretation | | of the song. You may only use this file for private study, scholarship, | | or research. | +--------------------------------------------------------------------------+
Ultimate-Guitar.Com © 2005















variations - click chord images
Transpose chords:
Tuning:
Cool service:
View: Size:
A  A  A
Rating:
Layout:
  • Currently 0/5 Stars.
  • 1
  • 2
  • 3
  • 4
  • 5
 
Accuracy:
  • Currently 0/5 Stars.
  • 1
  • 2
  • 3
  • 4
  • 5
 
click stars to rate
Chordie recommends:
Check out JamPlay.com for online video guitar lessons
Songbook:
Login to add this song to your songbook
Support the artist
Preview/buy this song
MSN Music
Why this non-profit ad?

 
login to add comments/video/corrections