I Will

Radiohead

Guitar

 G#C#mA7M
------------------------|-------------------------|------------------------|
-------4----------4-----|-------5--------5-----5--|-------5----------------|
-------5----------5-----|-------6--------6-----6--|-------6----------6-----|
-------6----------6-----|-------6-----------------|-------6----------6-----|
-------6----------6-----|--4-------4--4-----4-----|------------------------|
--4-------4--4-------4--|-------------------------|--5-------5--5-------5--|


 G#sus4G#
----------------------4--|------------------------|------------------------|
----------------4-----4--|-------4----------4-----|-------5-------5--------|
-------6--5--------------|-------5----------5-----|-------6-------6-----6--|
-------------------------|-------6----------6-----|-------6-------6--------|
-------------------6-----|-------6----------6-----|--4-------4-------4-----|
--4----------4-----4-----|--4-------4--4-------4--|------------------------|
-----------------------|----------------------4--|-------------------------|
------5----------5-----|----------------4-----4--|-------4-----------4-----|
------6----------6-----|-------6--5--------------|-------5-----------5-----|
------6----------6-----|-------6-----------------|-------6--------6--6-----|
-----------------------|-------------------6-----|-------6-----------------|
-5-------5--5-------5--|--4----------4-----4-----|--4-------4--4--------4--|
------------------------|------------------------|----------------------4--|
------5--------5-----5--|-------5----------------|----------------4-----4--|
------6--------6-----6--|-------6----------6-----|-------6--5--------------|
------6--------6-----6--|-------6----------6-----|-------------------------|
-4-------4--4-----4-----|------------------------|-------------------6-----|
------------------------|--5-------5--5-------5--|--4----------4-----4-----|
------------------------|------------------------|------------------------|
------------------4-----|-------5-------5--------|-------5----------5-----|
-------5----------5-----|-------6-------6-----6--|-------6----------6-----|
------------------6-----|-------6-------6--------|-------6----------6-----|
------------------6-----|--4-------4-------4-----|------------------------|
--4-------4--4-------4--|------------------------|--5-------5--5-------5--|
----------------------4--|------------------------|------------------------|
----------------4-----4--|-------4----------4-----|-------5-------5--------|
-------6--5--------------|-------5----------5-----|-------6-------6-----6--|
-------6-----------------|-------6----------6-----|-------6-------6--------|
-------------------6-----|-------6----------6-----|--4-------4-------4-----|
--4----------4-----4-----|--4-------4--4-------4--|------------------------|
------------------------|----------------------4--|------------------------|
-------5----------5-----|----------------4-----4--|-------4----------4-----|
-------6----------6-----|-------6--5--------------|-------5----------5-----|
-------6----------6-----|-------6-----------------|-------6----------6-----|
------------------------|-------------------6-----|-------6----------6-----|
--5-------5--5-------5--|--4----------4-----4-----|--4-------4--4-------4--|
------------------------|------------------------|----------------------4--|
-------5-------5--------|-------5----------5-----|----------------4-----4--|
-------6-------6-----6--|-------6----------6-----|-------6--5--------------|
-------6-------6--------|-------6----------6-----|-------6-----------------|
--4-------4-------4-----|------------------------|-------------------6-----|
------------------------|--5-------5--5-------5--|--4----------4-----4-----|


 AF#mG#E
-------------------------|------------------------|------------------------|
-------4-----------------|-------5----------2-----|-------4----------0-----|
-------5--------5-----5--|-------6----------2-----|-------5----------1-----|
-------6--------6-----6--|-------7----------4-----|-------6----------2-----|
-------6-----------------|------------------------|------------------------|
--4-------4--4-----4-----|--5-------5--2-------2--|--4-------4--0-------0--|


 F#G#AF#mG#E
------------------------|------------------------|------------------------|
-------2----------4-----|-------5----------2-----|-------4----------0-----|
-------3----------5-----|-------6----------2-----|----------5-------1-----|
-------4----------6-----|-------7----------4-----|------------------2-----|
------------------------|----------7-------------|------------------------|
--2-------2--4-------4--|--5----------2-------2--|--4----------0-------0--|


 F#G#AF#mG#
------------------------|------------------------|-------------|
-------2----------4-----|-------5----------2-----|-------4-----|
-------3----------5-----|-------6----------2-----|-------5-----|
-------4----------6-----|-------7----------4-----|-------6-----|
------------------------|------------------------|-------------|
--2-------2--4-------4--|--5-------0--2-------2--|--4-------4--|


 EF#EF#G#
-------------------------|------------------------|-------4----------------|
-------0--------------2--|-------0----------2-----|-------4--------4-------|
-------1-----------3--3--|-------1----------3-----|-------5--------5-------|
-------2--------4-----4--|-------2----------4-----|-------6--------6-------|
-------------------------|------------------------|------------------------|
--0-------0--2-----------|--0-------0--2-------2--|--4-------4--4-----4----|


 C#m
-------------------||
--5----------------||
--6----------------||
--6----------------||
--4----------------||
-------------------||


END

+--------------------------------------------------------------------------+

| This file is the author's own work and represents their interpretation |
| of the song. You may only use this file for private study, scholarship, |
| or research. |
+--------------------------------------------------------------------------+


Ultimate-Guitar.Com © 2005








A C#m E F# F#m G# G#sus4
variations - click chord images
Transpose chords:
Tuning:
Cool service:
View: Size:
A  A  A
Rating:
Layout:
  • Currently 0/5 Stars.
  • 1
  • 2
  • 3
  • 4
  • 5
 
Accuracy:
  • Currently 0/5 Stars.
  • 1
  • 2
  • 3
  • 4
  • 5
 
click stars to rate
Chordie recommends:
Get acoustic guitar lessons and electric guitar lessons at JamPlay.com
Songbook:
Login to add this song to your songbook
Support the artist
Preview/buy this song
MSN Music
Why this non-profit ad?

 
login to add comments/video/corrections