"yes"; ?> Pinoy Ako by Orange and Lemons - guitar chords, guitar tabs and lyrics - chordie

Pinoy Ako

Orange and Lemons

 Standard Tuning
  EADG
 Legend
h - hammer
x - pause using palm mute

 Intro
Sa una, may riff na mag-iintro, pag naka-8 times na xa, papasok ung bass intro...
 AD
 G|------------------------|------------------------------------------|
 D|---------/5-4---5-4-----|------------------------------------------|
 A|----5-h7------5-----5---|---0--0-0-00--0-0-05--5-5-55--5-5-5...----|
 E|------------------------|------------------------------------------|

 Verses
 DF#mEmG
 G|-----------------------------------------------------------|
 D|-----------------------------------------------------------|
 A|----5x---5--7--9x---9--9--7x---7--9--10x---10--9...--------| 3x
 E|-----------------------------------------------------------|

Lahat tayo'y mayroon pagkakaiba mata lang ay makikita na
Iba't ibang kagustuhan ngunit isang patutunguhan

 Refrain
 DF#mEmG
 G|-----------------------------------------------------------|
 D|-----------------------------------------------------------|
 A|----5x---5--7--9x---9--9--7x---7--9--10x---10--9...--------| then...
 E|-----------------------------------------------------------|

Gabay at pagmamahal ang hanap ko, Pagbibigay ng halaga sa iyo

 DF#mEmGAm
 G|-----------------------------------------------------------|
 D|-----------------------------------------------------------|
 A|----5x---5--7--9x---9--9--7x---7-9-10-9-7-12-10-9...-------|
 E|-----------------------------------------------------------|

Nais mong ipakilala kung sino ka man talaga?

Note** the chord "Am" in parenthesis suddenly will appear
before chorus, it must be in a power chord form...
 Cborus
 DF#mEmG

 G|----------------------------------------------------------------|
 D|----------------------------------------------------------------|
 A|----5---5--5--7-9---9--9--9-7---7--7--9-10---10--10--9...-------| 4x
 E|----------------------------------------------------------------|

Pinoy, ikaw Pinoy, ipakita sa mundo, kung ano ang kaya mo
Ibang-iba Pinoy, wag kang matatakot. Ipagmalaki mo,
Pinoy ako, Pinoy tayo

 Verse 2
 Refrain
 Cborus
 Bridge
 AAAAAAGGG
 G|------------------------------------------------------------------------------|
 D|------------------------------------------------------------------------------|
 A|----0--0-0-00--0-0-00--0-0-00--0-0-00--0-0-00--0-0-0--------------------------| 2x
 E|----------------------------------------------------3--3-3-33--3-33...--------|

 Cborus
 Outro
  same as intro...
All Rights Reserved
© Copyright 2005
All Tabs made by Allan John G. Amisola ®
Law prohibits all public performances and illegal disclaimers of
this tab and has a specific punishment.

END

+--------------------------------------------------------------------------+

| This file is the author's own work and represents their interpretation |
| of the song. You may only use this file for private study, scholarship, |
| or research. |
+--------------------------------------------------------------------------+


Ultimate-Guitar.Com © 2005


A Am D Em F#m G
variations - click chord images
Transpose chords:
Tuning:
Cool service:
View: Size:
A  A  A
Rating:
Layout:
  • Currently 5/5 Stars.
  • 1
  • 2
  • 3
  • 4
  • 5
 
Accuracy:
  • Currently 2/5 Stars.
  • 1
  • 2
  • 3
  • 4
  • 5
 
click stars to rate
Chordie recommends:
Learn to play this song & others via video guitar lessons at JamPlay.com
Songbook:
Login to add this song to your songbook
Support the artist
Preview/buy this song
MSN Music
Why this non-profit ad?

 
login to add comments/video/corrections