When The Children Cry

White Lion

When The Children Cry

Tuning: EADGBE

INTRO
e:-12-----12-------|-10------8---7---|-10------8---7---|-10------8-------|
B:---0---0---0---0-|---0---0---0---0-|---0---0---0---0-|---0---0---0---0-|
G:-----0-------0---|-----0-----------|-----0-----------|-----0-------0---|
D:-----------------|-----------------|-----------------|-----------------|
A:-----------------|-----------------|-----------------|-----------------|
E:-0---------------|-----------------|-----------------|-0---------------|
e:-7-------3---2---|-0------12-------|-10------8---7---|-10------8-------|
B:---0---0---0---0-|---0---0---0---0-|---0---0---0---0-|---0---0---0---0-|
G:-----0-----------|-----0-------0---|-----0-----------|-----0-------0---|
D:-----------------|-----------------|-----------------|-----------------|
A:-----------------|-----------------|-----------------|-----------------|
E:---------3---2---|-0---------------|-----------------|-0---------------|


 Em(add9BmC
e:-7---------------|-0---------------|---------2-------|---------------0---|
B:---0-----0---3---|-0-----------0---|---3-------3-----|-1-------1h3-----3-|
G:-----0---0---2---|---------0-------|-----4-------4---|---0---0-----0-----|
D:-------0---------|-------4---4-----|-------4---------|-----2-------------|
A:-----------------|-----2---------0-|-2-------------0-|-3-----------------|
E:---------3---2---|-0---------------|-----------------|-------------------|


 GEm(Add9BmC
e:-----------------|-----------------|---------2-------|-------------0---|
B:---3-------------|-------------0---|---3-------3-----|-1-------3-----0-|
G:-----0---------0-|---------0-------|-----4-------4---|---0---0---0-----|
D:-------0---0-----|-------4---------|-------4---------|-----2-----------|
A:-----------------|-----2-----4---0-|-2-------------0-|-3---------------|
E:-3-------3---2---|-0---------------|-----------------|-----------------|


VERSE:(X 2)
D END IN G
e:-2-------2h3p2p0-|------5------/10-|-----------------|-------------------|
B:---3---3---------|-3/-----7---//10-|-7---------------|-0-------0-1-1p0---|
G:-----2-----------|---/7-----7///---|-7---------------|.--0---0---------0-|
D:-0---------------|-----------------|-----------------|.----0-------------|
A:-----------------|-----------------|-----------------|-------------------|
E:-----------------|-----------------|-----------------|-3-----------------|

Little Child

 D/F#EmBm7D
e:-----------------|--------------------|---------2-------|
B:-----3-------3---|--------------------|---3-------3-----|
G:-2-----2---2---0-|-0-------0-2-2p0----|-----2-------2---|
D:---0-----0-------|---2---2---------2/4|-------4-------0-|
A:-----------------|-----2--------------|-2---------------|
E:-2---------------|-0------------------|-----------------|

Dry your cry ing eyes

 CGEm(add9
e:---------------0---|-----------------|-----------------|
B:-1-------1h3-----3-|---3-------------|-------------0---|
G:---0---0-----0-----|-----0-----0---0-|---------0-----0-|
D:-----2-------------|-------0---------|-------4---4-----|
A:-3-----------------|-----------------|-----2-----------|
E:-------------------|-3-------3---2---|-0---------------|

How can I explain the fear you feel in

(repeat once) PRE-CHORUS
END VERSE G Bm
e:-2-------2h3p2p0-----|-0-------0-------|---------2-------|
B:---3---3---------3---|---1---1---1-----|---3-------3-----|
G:-----2-------------0.|-----0-------0---|-----4-------4---|
D:-0------------------.|---------------0-|-------4-------4-|
A:---------------------|-3---------------|-2---------------|
E:---------------------|-----------------|-----------------|

side What have we become

 Em(add9BmCG
e:-----------------|---------2-------|---------------0---|-----------------|
B:-------------0---|---3-------3-----|-1-------1h3-----3-|---3-------------|
G:---------0-----0-|-----4-------4---|---0---0-----0-----|-----0-----0---0-|
D:-------4---4-----|-------4-------0-|-----2-------------|-------0---------|
A:-----2-----------|-2---------------|-3-----------------|-----------------|
E:-0---------------|-----------------|-------------------|-3-------3---2---|

Just look what we have done All that we destroyed

CHORUS
Em(add9) END PRE-CHORUS Em(Add9)
e:-----------------|-2-------3-------|-2---------------|-----------------|
B:-------------0---|---3---3---3---3-|-----------------|-------------0---|
G:---------0-----0-|-----2-------2---|-----------------|---------0-------|
D:-------4---4-----|-0---------------|-----------------|-------4---4-----|
A:-----2-----------|-----------------|-----------------|-----2---------0-|
E:-0---------------|-----------------|-----------------|-0---------------|

You must build When The Children Cry

 BmCGEm(add9
e:---------2-------|---------------0---|-----------------|-----------------|
B:---3-------3-----|-1-------1h3-----3-|-----3-----------|-------------0---|
G:-----4-------4---|---0---0-----0-----|-----------0---0-|---------0-------|
D:-------4-------0-|-----2-------------|-------0---------|-------4---4---4-|
A:-2---------------|-3-----------------|---0-------------|-----2-----------|
E:-----------------|-------------------|-3-------3---2---|-0---------------|

Let em know we tried cause when the children sing

Bm C END CHORUS D

e:---------2-------|-------------0---|-2-2-----2h3p2p0-|----5-------10---|
B:---3-------3-----|-1-------3-------|-------3---------|-3----7----------|
G:-----4-------4---|---0---0---0-----|-----2-----------|--/7----7/11-----|
D:-------4-------0-|-----2-----------|-0---------------|-----------------|
A:-2---------------|-3-------------0-|-----------------|-----------------|
E:-----------------|-----------------|-----------------|-----------------|

Then the new world begins

VERSE 2: (Guitar 1 Repeat Verse)
Guitar 2:
e:-----------------|-----------------|-----------------|-----------------|
B:-RIFF-A:---------|-----------------|-----------------|-----------------|
G:-----------------|-----------------|-----------------|-----------------|
D:-5~~~~~~~~~~~~~--|-4~~~~~~~~~~~~~~-|-2~~~~~~~~~~~~~~-|-9~~~~~~~~~~~~~--|
A:-----------------|-----------------|-----------------|-----------------|
E:-----------------|-----------------|-----------------|-----------------|

Little You must show the way

e:-----------------|-----------------|-----------------|-----------------|
B:-----------------|-----------------|------END-RIFF-A-|-----------------|
G:-----------------|-----------------|-----------------|-----------------|
D:-9h10~~~~~~~~~~~-|-9~~~~~~~~~~~~~~~|~~~~~~~~~~~~~----|-7~~~~~~~~~~~~~--|
A:-----------------|-----------------|-----------------|-----------------|
E:-----------------|-----------------|-----------------|-----------------|

To a better day for all the young

Guitar 2 plays Riff A
GUITAR 3:Elec
e:-----------------|-----------------|-----------------|-----------------|
B:-3~~~~~~~~~~~~~~-|-----------------|-----------------|-3~~~~~~~~~~~~~--|
G:-----------------|-5~~~~~~~~~~~~---|-4~~~~~~~~~~~~~--|-----------------|
D:-----------------|-----------------|-----------------|-----------------|
A:-----------------|-----------------|-----------------|-----------------|
E:-----------------|-----------------|-----------------|-----------------|

Cuz we were born For the world to see

e:-----------------|-----------------|-----------------|-----------------|
B:-5~~~~~~~~~~~~---|-3~~~~~~~~~~~~~~~|~~~~~~~~~~~~~~~--|-----------------|
G:-----------------|-----------------|-----------------|-----------------|
D:-----------------|-----------------|-----------------|-----------------|
A:-----------------|-----------------|-----------------|-----------------|
E:-----------------|-----------------|-----------------|-----------------|

that we all can live w/ love and peace

CHORUS 2: (Guitar 1 repeat chorus)
Guitars 2+3:(Gtr 2 play D String)

e:-----------------|-----------------|-----------------|-----------------|
B:-Guitar-1--------|-----------------|-----------------|-----------------|
G:-Repeat-PreChorus|-----------------|-4~~~~~~~~~~~~~~-|-2~~~~~~~~~~~~~~-|
D:-----------------|-----------------|-2~~~~~~~~~~~~~~-|-4~~~~~~~~~~~~~~-|
A:-----------------|-----------------|-----------------|-----------------|
E:-----------------|-----------------|-----------------|-----------------|

When the Children Cry Let em

(Guitar 3 play G string)

e:-----------------|-----------------|-----------------|-----------------|
B:-----------------|-----------------|-----------------|-----------------|
G:-5~~~~~~~~~~~~~--|-4~~~~~~~~~~~~~~-|-4~~~~~~~~~~~~~~-|-2~~~~~~~~~~~~~--|
D:-5~~~~~~~~~~~~~~~|~~~--5~~-4~~-----|-2~~~~~~~~~~~~~~-|-4~~~~~~~~~~~~~~-|
A:-----------------|-----------------|-----------------|-----------------|
E:-----------------|-----------------|-----------------|-----------------|

know we tried Cuz when the children sing then the

Gtr 1 play verse
END CHORUS 2 Guitar 1: SOLO:
e:-----------------|-2-------3-------|-2-------3p2-----|-----------------|
B:-----------------|---3---3---3---3-|---3---3-----3---|-15^-(Full)---17-|
G:-5~~~~~~~~~~~~~--|(7)--2-------2---|-----2---------0-|-----------------|
D:-5~~~~~~~~~~~~~~-|(7)--------------|-----------------|-----------------|
A:-----------------|-----------------|-----------------|-----------------|
E:-----------------|-----------------|-----------------|-----------------|

new world begins

Full Tap Rel

e:-----------------|-----------------|-----------------|-----------------|
B:p13~~~~~~~~-15---|-12~~~~~~--------|-----------------|-15^----T17------|
G:-----------------|---------14p12/11|~~~~~~~~~--------|-----------------|
D:-----------------|-----------------|---------12~~~---|-----------------|
A:-----------------|-----------------|-----------------|-----------------|
E:-----------------|-----------------|-----------------|-----------------|


Full Release 1/2
e:-----------------|---------17^-----|-17-~~~~~~~~~~~--|-19^-----19-19---|
B:p15~~~~~-h17p13//|/12~~~-----------|-----------------|-----------------|
G:-----------------|-----------------|-----------------|-----------------|
D:-----------------|-----------------|-----------------|-----------------|
A:-----------------|-----------------|-----------------|-----------------|
E:-----------------|-----------------|-----------------|-----------------|


Full Full Release Full

e:-20^--20-20-19-20|-19--------------|-----------------|-----------------|
B:-----------------|-----20^---------|-19--17p15~~~~~--|-15^-----15p13p12|
G:-----------------|-----------------|-----------------|-----------------|
D:-----------------|-----------------|-----------------|-----------------|
A:-----------------|-----------------|-----------------|-----------------|
E:-----------------|-----------------|-----------------|-----------------|


Full Full Release

e:-----------------|-----------------|-----------------|-----------------|
B:-13p12-----------|------------15^--|-15~~~~~~~~------|-Guitar-1--------|
G:-------------14^-|--------p12------|-----------------|-Repeat-Pre------|
D:-----------------|-----------------|-----------------|-Chorus-TWICE----|
A:-----------------|-----------------|-----------------|-----------------|
E:-----------------|-----------------|-----------------|-----------------|


Guitar 1
Last 2 Measures:

e:-----------------|---2-----2h3p2p0-|----5-----10-----|
B:-Repeat-Chorus---|-3-----3---------|-3----7---10-7!--|
G:-W/Small-adlibs--|-----2-----------|--/7----7/---7!--|
D:-Add-chorus-riffs|-0---------------|-----------------|
A:-For-Gtr-1,2,3---|-----------------|-----------------|
E:-----------------|-----------------|-----------------|


:: Ultimate Guitar Archive ::
http://www.ultimate-guitar.com

END

+--------------------------------------------------------------------------+

| This file is the author's own work and represents their interpretation |
| of the song. You may only use this file for private study, scholarship, |
| or research. |
+--------------------------------------------------------------------------+


Ultimate-Guitar.Com © 2005


Bm Bm7 C D D/F# Em G
variations - click chord images
Transpose chords:
Tuning:
Cool service:
View: Size:
A  A  A
Rating:
Layout:
  • Currently 0/5 Stars.
  • 1
  • 2
  • 3
  • 4
  • 5
 
Accuracy:
  • Currently 0/5 Stars.
  • 1
  • 2
  • 3
  • 4
  • 5
 
click stars to rate
Chordie recommends:
Get acoustic guitar lessons and electric guitar lessons at JamPlay.com
Songbook:
Login to add this song to your songbook
Support the artist
Preview/buy this song
MSN Music
Why this non-profit ad?

 
login to add comments/video/corrections