I Want You Shes So Heavy

Beatles

------------------------------------------------------------------

------------------------------------------------------------------

6/8

e|--------------- 1--------------|--------------- 1--------------|  1
B|----------3----------3---------|----------3----------3---------|
G|-----2--------------------2----|-----2--------------------2----|
D|0------------------------------|3------------------------------|
A|-------------------------------|-------------------------------|
E|-------------------------------|-------------------------------|
e|--------------- ---------------|--------------- ---------------|  2
B|-------------------------------|-------------------------------|
G|--------------------------2----|--------------------------2----|
D|0------------------------------|3------------------------------|
A|-------------------------------|-------------------------------|
D|-------------------------------|-------------------------------|
e|--------------- ---------------|--------------- ----B15---R----|  3
B|-------------------------------|-------------------------------|
G|----------------------------7-/|10---------12-/-10-------------|
D|-------------------------------|-------------------------------|
A|-------------------------------|-------------------------------|
E|-------------------------------|-------------------------------|
e|--------------- 1--------------|--------------- 1--------------|
B|----------3----------3---------|---------------------3---------|
G|-----1--------------------1----|----------1---------------1----|
D|2------------------------------|-----2-------------------------|
A|-------------------------------|1------------------------------|
E|-------------------------------|-------------------------------|
e|--------------- ---------------|--------------- ---------------|
B|-------------------------------|-------------------------------|
G|-------------------------------|--------------------------1----|
D|2------------------------------|-------------------------------|
A|---------------------3----2----|1------------------------------|
D|-------------------------------|-------------------------------|
e|--------------- ---------------|17B18---------- 18-R-----------|
B|12-------------------15---12---|--------------------------18---|
G|-------------------------------|-------------------------------|
D|-------------------------------|-------------------------------|
A|-------------------------------|-------------------------------|
E|-------------------------------|-------------------------------|


 4/4
                  (.                

e|--------------- 1--------------|------- ------- ------- -------|
B|----------2--------------------|-------------------------------|
G|-----2-------------------------|------------------------5------|
D|-------------------------------|--------------------7----------|
A|0------------------------------|-------------------------------|
E|-------------------------------|-------------------------------|

I want
e|--------------- ---------------|--------------- ---------------|
B|-------------------------------|-------------------------------|
G|-------------------------------|-------------------------------|
D|-------------------------------|-------------------------------|
A|0------------------------------|-------------------------------|
D|-------------------------------|-------------------------------|
e|--------------- 17-------------|--------------- ---------------|
B|-----18---------18-------------|-------------------------------|
G|18---18------------------------|-------------------------------|
D|19-----------------------------|-------------------------------|
A|-------------------------------|-------------------------------|
E|-------------------------------|-------------------------------|


x x x

e|------- ------- ------- -------|------- ------- ------- -------|
B|-------------------------------|-------------------------------|
G|7-B-9--------R7P5--------------|----------------5---7---7-B-9-9R
D|--------------------7----------|------------7------------------|
A|-------------------------------|-------------------------------|
E|-------------------------------|-------------------------------|

you I want you so

x x x x

e|------- ------- ------- -------|------- ------- ------- -------|
B|-------------------------------|-------------------------------|
G|7---5-----------5-------7-P-5--|------------------------5------|
D|--------7----------------------|--------------------7----------|
A|-------------------------------|-------------------------------|
E|-------------------------------|-------------------------------|

bad I want

x x x

e|------- ------- ------- -------|------- ------- ------- -------|
B|-------------------------------|-------------------------------|
G|7-B-9-R-7-B-9-R-7-B-9-R-7P5----|----------------5---7---7-B-9-9R
D|----------------------------7--|------------7------------------|
A|-------------------------------|-------------------------------|
E|-------------------------------|-------------------------------|

you I want you so

e|------- ------- ------- -------|------- ------- ------- -------|
B|-------------------------------|-------------------------------|
G|7-P-5-----------5--------------|--------5-------5--------------|
D|--------7---------------7------|5-------5-------5H7-----5------|
A|-------------------------------|----7--------------------------|
E|-------------------------------|-------------------------------|

bad It's driving me mad, it's

 2/4
e|------- -------|
B|---------------|
G|---------------|
D|---------------|
A|7---5---3B4----|
E|---------------|

driving me

 4/4
                                          x x x x x  x x  x x x

e|------- ------- ------- -------|------- ------- ------- -------|
B|-------------------------------|-------------------------------|
G|-------------------------------|------------------------10-----|
D|-------------------------------|--------------------12---------|
A|-------------------------------|-------------------------------|
E|5------------------------------|-------------------------------|

mad I want
e|------- ------- ------- -------|------- ------- ------- -------|
B|-------------------------------|-------------------------------|
G|--------5---5---5-----------5--|-------------------------------|
D|--------5---5---5-----------5--|-------------------------------|
A|--------------------7\5/7------|7---7---7----------------------|
D|-------------------------------|7---7---7----------------------|
e|------- ------- ------- -------|------- ------- ------- -------|
B|-------------------------------|-------------------------------|
G|12B14-12-----------------------|----------------10--12--12-B-14|
D|-------------------------------|------------12-----------------|
A|-------------------------------|-------------------------------|
E|-------------------------------|-------------------------------|

you I want you so

e|------- ------- ------- -------|------- ------- ------- -------|
B|-------------------------------|-------------------------------|
G|------------------------10-----|-------------------------------|
D|----------------12--12--10-----|-------------------------------|
A|----------------12--12---------|-------------------------------|
D|-------------------------------|-------------------------------|


B P
e|------- ------- ------- -------|------- ------- ------- -------|
B|-------------------------------|-------------------------------|
G|14R1210---------10------121410-|------------------------10-----|
D|--------12-------------------12|--------------------12---------|
A|-------------------------------|-------------------------------|
E|-------------------------------|-------------------------------|

bad, babe I want
e|------- ------- ------- -------|------- ------- ------- -------|
B|-------------------------------|----------------10-------------|
G|-------------------------------|--------10--10--10-------------|
D|-------------------------------|--------10--10------12---------|
A|-------------------------------|-------------------------------|
D|-------------------------------|-------------------------------|
e|------- ------- ------- -------|------- ------- ------- -------|
B|12-B-13R12-B-13R12-B-13R12-----|-------------------------------|
G|12-B-13R12-B-13R12-B-13R12-----|----------------10--12--12-B-14|
D|-------------------------------|------------12-----------------|
A|-------------------------------|-------------------------------|
E|-------------------------------|-------------------------------|

you I want you so
e|------- ------- ------- -------|------- ------- ------- -------|
B|-------------------------------|-------------------------------|
G|-------------------------------|10--10--10---------------------|
D|-------------------------------|10--10--10---------------------|
A|-------------------------------|-------------------------------|
D|-------------------------------|-------------------------------|
e|------- ------- ------- -------|------- ------- ------- -------|
B|-------------------------------|-------------------------------|
G|14R1210---------10-------------|-------------------------------|
D|--------12--------------12-----|10------10---10H12------10-----|
A|-------------------------------|----12-------------------------|
E|-------------------------------|-------------------------------|  

bad it's driving me mad it's
e|------- ------- ------- -------|------- ------- ------- -------|
B|-------------------------------|-------------------------------|
G|-------------------------------|-------------------------------|
D|-------------------------------|10------10------8--------------|
A|-------------------------------|10------10------8--------------|
D|-------------------------------|-------------------------------|


 2/4
e|------- -------|
B|---------------|
G|---------------|
D|---------------|
A|10----11----12-|
E|---------------|

driving me

e|------- -------|
B|---------------|
G|---------------|
D|---------------|
A|5-----6-----7--|
D|---------------|


 4/4
e|------- ------- ------- -------|------- ------- ------- -------|
B|--------6---6---6---6-------6--|6---6--------------------------|
G|--------7---7---7---7-------7--|7---7--------------------------|
D|--------6---6---6---6-------6--|6---6--------------------------|
A|--------7---7---7---7-------7--|7---7--------------------------|
E|0-------0---0---0---0-------0--|0---0--------------------------|
e|------- ------- ------- -------|------- ------- ------- -------|
B|--------6---6---6---6-------6--|6---6--------------------------|
G|--------7---7---7---7-------7--|7---7--------------------------|
D|--------6---6---6---6-------6--|6---6--------------------------|
A|--------7---7---7---7-------7--|7---7--------------------------|
E|0-------0---0---0---0-------0--|0---0--------------------------|


x

e|------- ------- ------- -------|------- ------- ------- -------|
B|--------6---6---6---6-------6--|6------------------------------|
G|--------7---7---7---7-------7--|7-----------------------5------|
D|--------6---6---6---6-------6--|6-------------------7----------|
A|--------7---7---7---7-------7--|7------------------------------|
E|0-------0---0---0---0-------0--|0------------------------------|

I want

e|------- ------- ------- -------|------- ------- ------- -------|
B|-------------------------------|-------------------------------|
G|7-B-9-----------7B9R7----------|----------------5---7---7-B-9-9R
D|-------------------------------|------------7------------------|
A|-------------------------------|-------------------------------|
E|-------------------------------|-------------------------------|

you I want you so
e|------- ------- ------- -------|------- ------- ------- -------|
B|-------------------------------|-------------------------------|
G|------------------------5---5--|5------------------------------|
D|------------------------5---5--|5------------------------------|
A|-------------------------------|-------------------------------|
D|-------------------------------|-------------------------------|
e|------- ------- ------- -------|------- ------- ------- -------|
B|-------------------------------|-------------------------------|
G|7-P-5-----------5-------7P5----|------------------------5------|
D|--------7-------------------7--|--------------------7----------|
A|-------------------------------|-------------------------------|
E|-------------------------------|-------------------------------|

bad I want
e|------- ------- ------- -------|------- ------- ------- -------|
B|-------------------------------|-------------------------------|
G|-------------------------------|5---5---5---5------------------|
D|-------------------------------|7---7---5---5------------------|
A|-------------------------------|7---7--------------------------|
D|-------------------------------|-------------------------------|
e|------- ------- ------- -------|------- ------- ------- -------|
B|-------------------------------|-------------------------------|
G|7-B-9-R-7-B-9-R-7P5------------|----------------5---7---7-B-9-9R
D|--------------------7----------|------------7------------------|
A|-------------------------------|-------------------------------|
E|-------------------------------|-------------------------------|

you I want you so
e|------- ------- ------- -------|------- ------- ------- -------|
B|-------------------------------|-------------------------------|
G|-------------------------------|----5---5----------------------|
D|-------------------------------|----5---5----------------------|
A|----------------------------5-H|7------------------------------|
D|-------------------------------|-------------------------------|
e|------- ------- ------- -------|------- ------- ------- -------|
B|-------------------------------|-------------------------------|
G|7-P-5-----------5--------------|----------------5--------------|
D|--------7---------------7------|5-------5-------5H7-----5------|
A|-------------------------------|----7--------------------------|
E|-------------------------------|-------------------------------|

bad it's driving me mad it's
e|------- ------- ------- -------|------- ------- ------- -------|
B|-------------------------------|-------------------------------|
G|----------------5--------------|5-------5-------5--------------|
D|5---------------5--------------|7-------7-------5--------------|
A|7------------------------------|-------------------------------|
D|-------------------------------|-------------------------------|


 2/4
e|------- -------|
B|---------------|
G|---------------|
D|---------------|
A|7---5---3B4----|
E|---------------|

driving me

 4/4
e|------- ------- ------- -------|------- ------- ------- -------|
B|-------------------------------|------------------------10-----|
G|-------------------------------|------------------------10-----|
D|-------------------------------|--------------------12---------|
A|-------------------------------|-------------------------------|
E|5-~----------------------------|-------------------------------|   

mad I want
e|------- ------- ------- -------|------- ------- ------- -------|
B|-------------------------------|-------------------------------|
G|--------------------5---5------|5------------------------------|
D|--------------------5---5------|5------------------------------|
A|--------------5/7-----------7--|-------------------------------|
D|-------------------------------|-------------------------------|


B R P B

e|------- ------- ------- -------|------- ------- ------- -------|
B|-------------------------------|-------------------------------|
G|12141210-----------------------|----------------10--12--1214-14R
D|--------12---------------------|------------12-----------------|
A|-------------------------------|-------------------------------|
E|-------------------------------|-------------------------------|

you I want you so
e|------- ------- ------- -------|------- ------- ------- -------|
B|------------------------8/10---|-------------------------------|
G|----------------10--10--8/10---|10-----------------------------|
D|----------------10--10---------|10-----------------------------|
A|-------------------------------|-------------------------------|
D|-------------------------------|-------------------------------|


B R P
e|------- ------- ------- -------|------- ------- ------- -------|
B|--------------------10---------|-------------------------------|
G|12--10----------10--10H12141210|------------------------10-----|
D|--------12--------------------12--------------------12---------|
A|-------------------------------|-------------------------------|
E|-------------------------------|-------------------------------|

bad I want
e|------- ------- ------- -------|------- ------- ------- -------|
B|-------------------------------|-------------------------------|
G|-------------------------------|10--10--10----------10---------|
D|-------------------------------|10--10--10----------10---------|
A|-------------------------------|-----------12\10/12------------|
D|-------------------------------|-------------------------------|


 B
e|------- ------- ------- -------|------- ------- ------- -------|
B|12-B-13R12-B-13R12-------------|-------------------------------|
G|12-B-13R12-B-13R12-------------|----------------10--12--1214-14R
D|-------------------------------|------------12-----------------|
A|-------------------------------|-------------------------------|
E|-------------------------------|-------------------------------|

you I want you so
e|------- ------- ------- -------|------- ------- ------- -------|
B|------------------------10--10-|-------------------------------|
G|------------------------10--10-12/13\12-10---------------------|
D|-------------------------------12/13\12-10---------------------|
A|-------------------------------|-------------------------------|
D|-------------------------------|-------------------------------|
e|------- ------- ------- -------|------- ------- ------- -------|
B|-------------------------------|-------------------------------|
G|12--10----------10-------------|--------10------10------10-----|
D|--------12--------------12-----|10------10------10H12---10-----|
A|-------------------------------|----12-------------------------|
E|-------------------------------|-------------------------------| 

bad it's driving me mad it's
e|------- ------- ------- -------|------- ------- ------- -------|
B|-------------------------------|-------------------------------|
G|-------------------------------|-------------------------------|
D|----------------10----------10-|10--10----------8--------------|
A|12---------------8-----------8-|10--10----------8--------------|
D|12-----------------------------|-------------------------------|


 2/4

e|------- -------|
B|---------------|
G|---------------|
D|---------------|
A|10----11----12-|
E|---------------|                                

driving me
e|------- -------|
B|---------------|
G|---------------|
D|---------------|
A|5-----6-----7--|
D|---------------|


 4/4
e|------- ------- ------- -------|------- ------- ------- -------|
B|--------6---6---6---6---6---6--|6---6--------------------------|
G|--------7---7---7---7---7---7--|7---7--------------------------|
D|--------6---6---6---6---6---6--|6---6--------------------------|
A|--------7---7---7---7---7---7--|7---7--------------------------|
E|0-------0---0---0---0---0---0--|0---0--------------------------|
e|------- ------- ------- -------|------- ------- ------- -------|
B|--------6---6---6---6-------6--|6---6--------------------------|
G|--------7---7---7---7-------7--|7---7--------------------------|
D|--------6---6---6---6-------6--|6---6--------------------------|
A|--------7---7---7---7-------7--|7---7--------------------------|
E|0-------0---0---0---0-------0--|0---0--------------------------|


x

e|------- ------- ------- -------|------- ------- ------- -------|
B|--------6---6---6---6---6---6--|6------------------------------|
G|--------7---7---7---7---7---7--|7------------------------------|
D|--------6---6---6---6---6---6--|6------------------------------|
A|--------7---7---7---7---7---7--|7------------------------------|
E|0-------0---0---0---0---0---0--|0------------------------------|

She's so

6/8

e|--------------- 1--------------|--------------- 1--------------|
B|----------3----------3---------|----------3----------3---------|
G|-----2--------------------2----|-----2--------------------2----|
D|0------------------------------|3------------------------------|
A|-------------------------------|-------------------------------|
E|-------------------------------|-------------------------------|
e|--------------- ---------------|--------------- ---------------|
B|-------------------------------|-------------------------------|
G|--------------------------2----|--------------------------2----|
D|0------------------------------|3------------------------------|
A|-------------------------------|-------------------------------|
D|-------------------------------|-------------------------------|
e|--------------- 1--------------|--------------- 1--------------|
B|----------3----------3---------|---------------------3---------|
G|-----1--------------------1----|----------1---------------1----|
D|2------------------------------|-----2-------------------------|
A|-------------------------------|1------------------------------|
E|-------------------------------|-------------------------------|

heavy
e|--------------- ---------------|--------------- ---------------|
B|-------------------------------|-------------------------------|
G|-------------------------------|--------------------------1----|
D|2------------------------------|-------------------------------|
A|---------------------3----2----|1------------------------------|
D|-------------------------------|-------------------------------|
e|--------------- 1--------------|
B|----------2----------2---------|
G|-----2--------------------2----|
D|-------------------------------|
A|0------------------------------|
E|-------------------------------|
e|--------------- ---------------|
B|-------------------------------|
G|--------------------------2----|
D|-------------------------------|
A|0------------------------------|
D|-------------------------------|
e|--------------- 1--------------|--------------- 1--------------|
B|----------3----------3---------|----------3----------3---------|
G|-----2--------------------2----|-----2--------------------2----|
D|0------------------------------|3------------------------------|
A|-------------------------------|-------------------------------|
E|-------------------------------|-------------------------------|

Heavy
(Heavy Heavy)
e|--------------- ---------------|--------------- ---------------|
B|-------------------------------|-------------------------------|
G|--------------------------2----|-------------------------------|
D|0------------------------------|3-------------------------3----|
A|-------------------------------|-------------------------------|
D|-------------------------------|-------------------------------|
e|--------------- 1--------------|--------------- 1--------------|
B|----------3----------3---------|---------------------3---------|
G|-----1--------------------1----|----------1---------------1----|
D|2------------------------------|-----2-------------------------|
A|-------------------------------|1------------------------------|
E|-------------------------------|-------------------------------|
e|--------------- ---------------|--------------- ---------------|
B|-------------------------------|-------------------------------|
G|-------------------------------|--------------------------1----|
D|2------------------------------|-------------------------------|
A|---------------------3----2----|1------------------------------|
D|-------------------------------|-------------------------------|


 4/4
                  (.                

e|--------------- 1--------------|------- ------- ------- -------|
B|----------2--------------------|-------------------------------|
G|-----2-------------------------|------------------------5------|
D|-------------------------------|------------------/-7----------|
A|0------------------------------|-------------------------------|
E|-------------------------------|-------------------------------|
e|--------------- ---------------|--------------- ---------------|
B|-------------------------------|-------------------------------|
G|-------------------------------|-------------------------------|
D|-------------------------------|-------------------------------|
A|0------------------------------|-------------------------------|
D|-------------------------------|-------------------------------|
e|------- ------- ------- -------|------- ------- ------- -------|
B|-------------------------------|-------------------------------|
G|7-B-9------R7B9R7------B8-R-7--|5---------------5---7---7-B-9--|
D|-------------------------------|----7-----/-7------------------|
A|-------------------------------|-------------------------------|
E|-------------------------------|-------------------------------|
e|------- ------- ------- -------|------- ------- ------- -------|

{

B
variations - click chord images
Transpose chords:
Tuning:
Cool service:
View: Size:
A  A  A
Rating:
Layout:
  • Currently 1/5 Stars.
  • 1
  • 2
  • 3
  • 4
  • 5
 
Accuracy:
  • Currently 1/5 Stars.
  • 1
  • 2
  • 3
  • 4
  • 5
 
click stars to rate
Chordie recommends:
Get acoustic guitar lessons and electric guitar lessons at JamPlay.com
Songbook:
Login to add this song to your songbook
Support the artist
Preview/buy this song
MSN Music
Why this non-profit ad?

 
login to add comments/video/corrections