Chordie logo


On My Way To Work   Bright Eyes



| Ultimate Guitar Tabs Archive - your #1 source for tabs!               |
| http://www.ultimate-guitar.com/                                       |
|                                                                       |
| Over 200,000 guitar, guitar pro and bass tabs! Also lessons, news,    |
| columns and guitar forums!                                            |


Artist: Bright Eyes
Song: On My Way To Work


I'm pretty sure most of this is fairly accurate. It sounds ok when I play it anyway.

e|------2-----2-----2-----2-----2---|---------------------------------|
B|--------3-----3-----3-----3-----3-|-4---4-----4-----4-----4-----4---|
G|----------------------------------|-------4-----4-----4-----4-----4-|
D|--0-------0-----0-----0-----0-----|---------------------------------|
A|----------------------------------|---------------------------------|
E|----------------------------------|-4-------4-----4-----4-----4-----|

e|------2-----2-----3p2---2-----2---|---------------------------------|
B|--------3-----3-----------3-----3-|-----4-----4-----4-----4-----4---|
G|----------------------------------|-------4-----4-----4-----4-----0-|
D|--0-------0-----0-----0-----0-----|---------------------------------|
A|----------------------------------|---------------------------------|
E|----------------------------------|-4-------4-----4-----4-----4-----|

e|----------------------------------|---------3--------------------------------------|
B|------2-----2-----2-----2-----2---|---------------------4-----4-----4-----4----4---|
G|--------2-----2-----2-----2-----2-|-----0-----0-----------4-----4-----4-----4----0-|
D|----------------------------------|-------0----------------------------------------|
A|--0-------0-----0-----0-----0-----|------------------------------------------------|
E|----------------------------------|-3-----------3---4-------4-----4-----4-----4----|
                                There's a...          block...                   And there's...

e|----------------------------------------------------------------|
B|------2-----2-----------------------2-----2-----2-----2-----2---|
G|--------2-----2---------------------2-2-----2-----2-----2-----2-|
D|----------------------------------------2-----------------------|
A|--0-------0-----0/5---4---2-----0-------------0-----0-----0-----|
E|----------------------------------------------------------------|
    people... Say it's...         him...                      There's a...

e|------------------------------------------------|
B|--0-------0---------4-----4-----4-----4-----4---|
G|------0-----0---------4-----4-----4-----4-----0-|
D|------------------------------------------------|
A|------------------------------------------------|
E|--3-----3-------4-------4-----4-----4-----4-----|
                  frayed...                 And his...

e|----------------------------------------------------------------|
B|------2-----2-----------------------2-----2-----2-----2-----2---|
G|--------2-----2---------------------2-2-----2-----2-----2-----2-|
D|----------------------------------------2-----------------------|
A|--0-------0-----0/5---4---2-----0-------------0-----0-----0-----|
E|----------------------------------------------------------------|
    sings...      covered...      choir...                      of...

e|------------------------------------------------------------------|
B|------0---------------2---------------0---------------2-----------|
G|--------0-----0---------2-----2---------0-----0---------2-----2---|
D|----0-------0---0---2-------2---2---0-------0---0---2-------2---2-|
A|------------------0-------0-----------------------0-------0-------|
E|--3-------3-----------------------3-------3-----------------------|
    voices...         rafters...    devotion...     task...

e|----------------------------------------------------x---------|
B|------0---------------2---------------0-----------2-x---------|
G|--------0-----0---------2-----2---------0-----0---2-x---------|
D|----0-------0---0---2-------2---2---0-------0---0-2-x---------|
A|------------------0-------0-----------------------0-x---------|
E|--3-------3-----------------------3-------3---------x---------|
    cross...        chequebooks...  suffering...    ask.

e|--2---2-------2-------2-------2-22------------------------------------------|
B|--3---3-3-3-3-3-3-3-3-3-3-3-3-3-33-2---2-------2-------2-------2-------2-22-|
G|--2---2-2-2-2-2-2-2-2-2-2-2-2-2-22-2---2-2-2-2-2-2-2-2-2-2-2-2-2-2-2-2-2-22-|
D|--0---0-0-0-0-0-0-0-0-0-0-0-0-0-00-2---2-2-2-2-2-2-2-2-2-2-2-2-2-2-2-2-2-22-|
A|-----------------------------------0---0-0-0-0-0-0-0-0-0-0-0-0-0-0-0-0-0-00-|
E|----------------------------------------------------------------------------|
    money...                         alone...

e|----------------------------------------------------------------------------|
B|--0---0-------0-------0-------0-00-2---2-------2-------2-------2-------2-22-|
G|--0---0-------0-------0-------0-00-2---2-2-2-2-2-2-2-2-2-2-2-2-2-2-2-2-2-22-|
D|--0---0-0-0-0-0-0-0-0-0-0-0-0-0-00-2---2-2-2-2-2-2-2-2-2-2-2-2-2-2-2-2-2-22-|
A|--2---2-2-2-2-2-2-2-2-2-2-2-2-2-22-0---0-0-0-0-0-0-0-0-0-0-0-0-0-0-0-0-0-00-|
E|--3-----------------------------33------------------------------------------|
    doing...                         hope...

e|--2---2-------2-------2-------2-22------------------------------------------|
B|--3---3-3-3-3-3-3-3-3-3-3-3-3-3-33-2---2-------2-------2-------2-------2-22-|
G|--2---2-2-2-2-2-2-2-2-2-2-2-2-2-22-2---2-2-2-2-2-2-2-2-2-2-2-2-2-2-2-2-2-22-|
D|--0---0-0-0-0-0-0-0-0-0-0-0-0-0-00-2---2-2-2-2-2-2-2-2-2-2-2-2-2-2-2-2-2-22-|
A|-----------------------------------0---0-0-0-0-0-0-0-0-0-0-0-0-0-0-0-0-0-00-|
E|----------------------------------------------------------------------------|
    lonely...                        sure...

e|-----------------------------------------------------------------------------------------|
B|--0---0-------0-------0-------0-00-2---2-------2-------2-------2-------2-22-0---0-00-0---|
G|--0---0-------0-------0-------0-00-2---2-2-2-2-2-2-2-2-2-2-2-2-2-2-2-2-2-22-1---1-11-0---|
D|--0---0-0-0-0-0-0-0-0-0-0-0-0-0-00-4---4-4-4-4-4-4-4-4-4-4-4-4-4-4-4-4-4-44-2---2-22-0---|
A|--2---2-2-2-2-2-2-2-2-2-2-2-2-2-22-4---4-4-4-4-4-4-4-4-4-4-4-4-4-4-4-4-4-44-2---2-22-2---|
E|--3-----------------------------33-2-------------------------------------22-0---0-00-3---|
    coughing...                      dying...                                 dying...

e|----------2-----2-----2-----2---|---------------------------------|
B|----3-------3-----3-----3-----3-|-----4-----4-----4-----4-----4---|
G|------2-------------------------|-------4-----4-----4-----4-----4-|
D|--0-----0-----0-----0-----0-----|---------------------------------|
A|--------------------------------|---------------------------------|
E|--------------------------------|-4-------4-----4-----4-----4-----|

e|------2-----2-----2-----------|---------------------------------|
B|--------3-----3---------------|-4---4-----4-----4-----4-----4---|
G|------------------------------|-------4-----4-----4-----4-----0-|
D|--0-------0-----0-0-----------|---------------------------------|
A|---------------------4--0--2--|---------------------------------|
E|------------------------------|-4-------4-----4-----4-----4-----|

e|----------------------------------|------------------------------------------------|
B|------2-----2-----2-----2-----2---|---0-----0-----------4-----4-----4-----4----4---|
G|--------2-----2-----2-----2-----2-|-----0-----0-----------4-----4-----4-----4----0-|
D|----------------------------------|------------------------------------------------|
A|--0-------0-----0-----0-----0-----|------------------------------------------------|
E|----------------------------------|-3-----3-----3---4-------4-----4-----4-----4----|
                              I pass...               way...                    today...

e|------0---------------------------------------------------------|
B|--------2---2-----------------------2-----2-----2-----2-----2---|
G|--------------2---------------------2-2-----2-----2-----2-----2-|
D|----------------------------------------2-----------------------|
A|--0-------0-----0/5---4---2-----0-------------0-----0-----0-----|
E|----------------------------------------------------------------|
        two...      fresh...      dirt...                     and I...
e|--------------------------------------------------|
B|----0-----0-----------4-----4-----4-----4-----4---|
G|------0-----0-----------4-----4-----4-----4-----0-|
D|--------------------------------------------------|
A|--------------------------------------------------|
E|--3-----3-----3---4-------4-----4-----4-----4-----|
    wondered...     occupant...                 when...

e|------0---------------------------------------------------------|
B|--------2---2-----------------------2-----2-----2-----2-----2---|
G|--------------2---------------------2-2-----2-----2-----2-----2-|
D|----------------------------------------2-----------------------|
A|--0-------0-----0/5---4---2-----0-------------0-----0-----0-----|
E|----------------------------------------------------------------|
    darkness...   was he...     content...                    or was...

e|-------------------------------------------------------------------|
B|------0-----0---------2-----2---------0-----0---------2-----2------|
G|--------0-----0---------2-----2---------0-----0---------2-----2----|
D|----0---------------2---------------0---------------2--------------|
A|------------------0-------0-----0-----------------0-------0-----0--|
E|--3-------3-----3-----------------3-------3-----3------------------|
    sweating...     breathing...  ripping...        bed...

e|----------------------------------------------------x---|
B|------0-----0---------2-----2---------0-----0-----2-x---|
G|--------0-----0---------2-----2---------0-----0---2-x---|
D|----0---------------2---------------0-------------2-x---|
A|------------------0-------0-----0-----------------0-x---|
E|--3-------3-----3-----------------3-------3-----3---x---|
    crying...       help...         collapsing...   dead.

e|--2---2-2-2-2-2-2-2-2-2-2-2-2-2-22-0---0-0-0-0-0-0-0-0-0-0-0-0-0-0-0-0-0-00-|
B|--3---3-3-3-3-3-3-3-3-3-3-3-3-3-33-2---2-2-2-2-2-2-2-2-2-2-2-2-2-2-2-2-2-22-|
G|--2---2-2-2-2-2-2-2-2-2-2-2-2-2-22-2---2-2-2-2-2-2-2-2-2-2-2-2-2-2-2-2-2-22-|
D|--0---0-0-0-0-0-0-0-0-0-0-0-0-0-00-2---2-2-2-2-2-2-2-2-2-2-2-2-2-2-2-2-2-22-|
A|-----------------------------------0---0-0-0-0-0-0-0-0-0-0-0-0-0-0-0-0-0-00-|
E|----------------------------------------------------------------------------|
  unstable...                        end...

e|-----------------------------------0---0-0-0-0-0-0-0-0-0-0-0-0-0-0-0-0-0-00-|
B|--0---0-0-0-0-0-0-0-0-0-0-0-0-0-00-2---2-2-2-2-2-2-2-2-2-2-2-2-2-2-2-2-2-22-|
G|--0---0-0-0-0-0-0-0-0-0-0-0-0-0-00-2---2-2-2-2-2-2-2-2-2-2-2-2-2-2-2-2-2-22-|
D|--0---0-0-0-0-0-0-0-0-0-0-0-0-0-00-2---2-2-2-2-2-2-2-2-2-2-2-2-2-2-2-2-2-22-|
A|--2---2-2-2-2-2-2-2-2-2-2-2-2-2-22-0---0-0-0-0-0-0-0-0-0-0-0-0-0-0-0-0-0-00-|
E|--3---3-3-3-3-3-3-3-3-3-3-3-3-3-33------------------------------------------|
    happen...                        spend...

e|--2---2-2-2-2-2-2-2-2-2-2-2-2-2-22-0---0-0-0-0-0-0-0-0-0-0-0-0-0-0-0-0-0-00-|
B|--3---3-3-3-3-3-3-3-3-3-3-3-3-3-33-2---2-2-2-2-2-2-2-2-2-2-2-2-2-2-2-2-2-22-|
G|--2---2-2-2-2-2-2-2-2-2-2-2-2-2-22-2---2-2-2-2-2-2-2-2-2-2-2-2-2-2-2-2-2-22-|
D|--0---0-0-0-0-0-0-0-0-0-0-0-0-0-00-2---2-2-2-2-2-2-2-2-2-2-2-2-2-2-2-2-2-22-|
A|-----------------------------------0---0-0-0-0-0-0-0-0-0-0-0-0-0-0-0-0-0-00-|
E|----------------------------------------------------------------------------|
    easy...                       anything...

e|-----------------------------------------------------------------------------------------|
B|--0---0-0-0-0-0-0-0-0-0-0-0-0-0-00-2---2-2-2-2-2-2-2-2-2-2-2-2-2-2-2-2-2-22-0---0-00-0---|
G|--0---0-0-0-0-0-0-0-0-0-0-0-0-0-00-2---2-2-2-2-2-2-2-2-2-2-2-2-2-2-2-2-2-22-1---1-11-0---|
D|--0---0-0-0-0-0-0-0-0-0-0-0-0-0-00-4---4-4-4-4-4-4-4-4-4-4-4-4-4-4-4-4-4-44-2---2-22-0---|
A|--2---2-2-2-2-2-2-2-2-2-2-2-2-2-22-4---4-4-4-4-4-4-4-4-4-4-4-4-4-4-4-4-4-44-2---2-22-2---|
E|--3---3-3-3-3-3-3-3-3-3-3-3-3-3-33-2---2-2-2-2-2-2-2-2-2-2-2-2-2-2-2-2-2-22-0---0-00-3---|
 confusing...                        going...                                 going...

e|------2-----2-----2-----2-----2---|---------------------------------|
B|--------3-----3-----3-----3-----3-|-----4-----4-----4-----4-----4-4-|
G|----------------------------------|-------4-----4-----4-----4-------|
D|--0-------0-----0-----0-----0-----|---------------------------------|
A|----------------------------------|---------------------------------|
E|----------------------------------|-4-------4-----4-----4-----4-----|

e|--2---2-----2-----2-----2-----2---|---------------------------------|
B|--------3-----3-----3-----3-----3-|-----4-----4-----4-----4-----4---|
G|----------------------------------|-------4-----4-----4-----4-----4-|
D|--0-------0-----0-----0-----0-----|---------------------------------|
A|----------------------------------|---------------------------------|
E|----------------------------------|-4-------4-----4-----4-----4-----|

e|------2-----2-----2-----------|---------------------------------|
B|--------3-----3---------------|-----4-----4-----4-----4-----4---|
G|------------------------------|-------4-----4-----4-----4-----4-|
D|--0-------0-----0-0-----------|---------------------------------|
A|---------------------4--0--2--|---------------------------------|
E|------------------------------|-4-------4-----4-----4-----4-----|

e|------2-----2-----3p2---2-----2---|---------------------------------|
B|--------3-----3-----------3-----3-|---------4-----4-----4-----4-----|
G|----------------------------------|-----4-----4-----4-----4-----4---|
D|--0-------0-----0-----0-----0-----|---------------------------------|
A|----------------------------------|---------------------------------|
E|----------------------------------|-4-----4-----4-----4-----4-----4-|


e|---------                  -----
B|--4------                  --4--
G|----4----  x 14   then     --4--
D|---------                  --0--
A|---------                  --0--
E|------4--                  --4--

END

+--------------------------------------------------------------------------+
| This file is the author's own work and represents their interpretation   |
| of the song. You may only use this file for private study, scholarship,  |
| or research.                                                             |
+--------------------------------------------------------------------------+



Important: The song above is NOT stored on the Chordie server. The original song is hosted at www.ultimate-guitar.com. Chordie works as a search engine and provides on-the-fly formatting. Chordie does not index songs against artists/composers will. To remove this song please click here.

This song is displayed as text-only. Transposing and tuning is only available for chordpro-songs.

Login - add to songbook

Rating click stars to rate

Layout
Accuracy

SHARE PAGE  




You need to log in to post comments