""; ?> Hitchin A Ride by Green Day - guitar chords, guitar tabs and lyrics - chordie

Hitchin A Ride

Green Day

 EFBAG#
 Troubled times    you know I cannot lie

 EFBAG#
 I'm off the wagon and I'm hitchin' a ride.

b a g# g
There's a drought at the fountain of youth

b a g# g
and now I'm dehydrating.

b a g# g
My tongue is swelling up I say.......(don't play here)
shit!

Solo:

B|-----------------|-----------------|-----------------|
G|4-4-4-4-4-4-4-4-|7-7-7-7-7-7-7-7-|4-4-4-4-4-4-4-4-|
D|-----------------|-----------------|------------------|
B|-----------------|-----------------|-----------------|
G|-----------------|4-4-4-4-4-4-4-4-|7-7-7-7-7-7-7-7-9(bend up)
D|5-5-5-5-4-4-4-4-|-----------------|-----------------|
B|-----------------------------------------------------------|
G|9--7----7--9--7----7--9--7----7--9--7----7----7--9--7--|
D|------9----------9-----------9----------9----9----------9-|
B|------------------|
G|7--9--7--9(bend up)
D|------------------|


Chorus:

b a g# g
Troubled times, you know I cannot lie.

b a g# g

I'm off the wagon and I'm hitchin' a ride.

B A G# G (x7)

 B

END

+--------------------------------------------------------------------------+

| This file is the author's own work and represents their interpretation |
| of the song. You may only use this file for private study, scholarship, |
| or research. |
+--------------------------------------------------------------------------+


Ultimate-Guitar.Com © 2005


A B E F G#
variations - click chord images
Transpose chords:
Tuning:
Cool service:
View: Size:
A  A  A
Rating:
Layout:
  • Currently 0/5 Stars.
  • 1
  • 2
  • 3
  • 4
  • 5
 
Accuracy:
  • Currently 0/5 Stars.
  • 1
  • 2
  • 3
  • 4
  • 5
 
click stars to rate
Chordie recommends:
Learn how to play guitar at JamPlay.com
Songbook:
Login to add this song to your songbook
Support the artist
Preview/buy this song
MSN Music
Why this non-profit ad?

 
login to add comments/video/corrections