Tabbed By : Nirvana_rocks73
e-mail:
<br />
Tuning:Standard.
This is a really good song. The bass part is awesome. This is probably pretty
accurate works really well with the song.
<br />
G|-------------------------------------------------------------------------|
D|-------------------------------------------------------------------------|
A|-4-3-2--5-6-7----------5-7-7-5-7---4-3-2--5-6-7----------5-7------7-5-0--|
E|---------------0-0-0-7---------------------------0-0-0-7-----0-0---------|
<br />
G|---------------------------------------------------------------|
D|---------------------------------------------------------------|
A|-4-3-2--5-6-7----------5-7-7-5-7--4-3-2--5-6-7----------5-7----|
E|---------------0-0-0-7-------------------------0-0-0-7------0--|
Then the verse starts:
G|--8--------------------8-----------------8------------------8----------------8---------|
D|-----9-7-----9-9-9-9-9---9-7---9-9-9-7-7---9-7----9-9-9-9-9---9-7----9-8-7-7---9-7-----|
A|----------9------------------9------------------9-----------------9-----------------9--|
E|---------------------------------------------------------------------------------------|
play that verse a whole bunch of times. Then it goes through a slight change.(it only
happens once in the song)
G|------------8---------------------------------------|
D|-9-9-9-9-9----9-7----9-8-7-------------------7-8-9--|
A|------------------9----------9-8-7-----7-9----------|
E|------------------------------------10--------------|
Then its a kind of pre-1st chorus thing so you play the verse during the "I'm so in love
yes, with an artist" part.
G|-----------8-------------------8-------------------8----------------8--------|
D|-9-9-9-9-9---9-7----9-9-9-7-7----9-7----9-9-9-9-9----9-7----9-8-7-7---9-7----|
A|-----------------9-------------------9-------------------9----------------9--|
E|-----------------------------------------------------------------------------|
Then the section right (and I mean right as in three bars before the chorus) goes like this:
G|-----------8-----------------8-------------------8-------------9--|
D|-9-9-9-9-9---9-7---9-9-9-7-7----9-7----9-9-9-9-9---9-7---9-8-7----|
A|-----------------9------------------9------------------9----------|
E|------------------------------------------------------------------|
CHORUS:
G|-----------------------------------------------------------------------------------|
D|---------------5----------------------------------------5--------------------------|
A|-7-5-7-7-7-5-7---7-7-5-4-5-5-5-4-5-4-5-6--7-5-7-7-7-5-7---7-7-5-4-5-5-5-4-5-4-5-6--|
E|-----------------------------------------------------------------------------------|

</div>
<div id="secondcol">

Play the chorus about four times. Then John takes the song out of the chorus and then 
bass plays alone for a few seconds here at the start then its the verse again:
G|-8------------------8------------------8-------------------8---------------8--------|
D|---9-7----9-9-9-9-9---9-7---9-9-9-7-7-----9-7----9-9-9-9-9---9-7---9-8-7-7---9-7----|
A|-------9------------------9-------------------9------------------9---------------9--|
E|------------------------------------------------------------------------------------|
You repeat the chorus again. then at the end of the chorus Anthony says: "Take me 
and that leads into the BRIDGE:
<br />
G|----------------------------------------------------------------|
D|---------------------------------------------7-7-5-5-4-4-4-3-3--|
A|-2-5-7-9-0--2-5-7-9-0--2-5-7-9-0--2-2-5-7-9---------------------|
E|----------------------------------------------------------------|
<br />
G|------------------------------------------------------|
D|-5-5-3-3-2-2-2-1-1-1--5-5-3-3-2-2-2-1-1--5-5-3-3-2-2--|
A|------------------------------------------------------|
E|------------------------------------------------------|
Then back to the verse:
G|-8-----------------8-----------------8-----------------8---------------8--------|
D|---9-7---9-9-9-9-9---9-7---9-9-9-7-7---9-7---9-9-9-9-9---9-7---9-8-7-7---9-7----|
A|-------9-----------------9-----------------9-----------------9---------------9--|
E|--------------------------------------------------------------------------------|
You play the verse a bunch of times and then where you would usually get ready for the 
you just slide up anywhere high and back fast on the A string and then here's the END!!!!!
G|---------------------------------------------------------------------|
D|---------------------------------------------------------------------|
A|-4-3-2--5-6-7---------5-7-7-5-7--4-3-2--5-6-7---------5-7-----7-5-0--|
E|--------------0-0-0-7-------------------------0-0-0-7-----0-0--------|
<br />
G|-------------------------------------------------------------|
D|-------------------------------------------------------------|
A|-4-3-2--5-6-7---------5-7-7-5-7--4-3-2--5-6-7---------5-7----|
E|--------------0-0-0-7-------------------------0-0-0-7-----0--|
Play that last open string hard with a FF dynamic it puts a great finish to a GREAT 

</pre>Hope you liked this tab and song. This is one of my favorites. Rock Out.




































variations - click chord images
Transpose chords:
Tuning:
Cool service:
View: Size:
A  A  A
Rating:
Layout:
  • Currently 0/5 Stars.
  • 1
  • 2
  • 3
  • 4
  • 5
 
Accuracy:
  • Currently 0/5 Stars.
  • 1
  • 2
  • 3
  • 4
  • 5
 
click stars to rate
Chordie recommends:
Check out JamPlay.com for online video guitar lessons
Songbook:
Login to add this song to your songbook
Support the artist
Preview/buy this song
MSN Music
Why this non-profit ad?

 
login to add comments/video/corrections