Alibi

David Gray

e---x--:--x--:-(0)-:--x--:-0-:--2--:-x-:-(0)--:

b---5--:--5--:-(0)-:--x--:-0-:--2--:-x-:--5---:
g---6--:-(4)-:--6--:-(6)-:-1-:--2--:-8-:--6---:
d---6--:--6--:--7--:--9--:-2-:--4--:-9-:--6---:
a---4--:--x--:--7--:--7--:-2-:--4--:-9-:--x---:
E---x--:--7--:--5--:--5--:-0-:--2--:-7-:--6---:
e---x--:---0---:---x---:--4--:-(0)-:-(0)-:
b---7--:---0---:---x---:--4--:-(0)-:-(0)-:
g---6--:---1---:-9.8.6-:--4--:--9--:--9--:
d---x--:-2.1.0-:---x---:--6--:--6--:--6--:
a---7--:---2---:---7---:--6--:--7--:--6--:
E---5--:---0---:---5---:--4--:--0--:--7--:

 C#mC#m2A)(A2
 stone blind alibi i will eat the lie
 EF#mB
 find the word could break any spell that binds you
 C#mC#m2A)(A2
 prayers like ammonites curl beneath the lites
 EF#mBC#m/Bb
 how i long to bite any hand that feeds you more
(A*) (E) (F#m) (B) (C#m)
where'd it all go wrong my friday nite enfant
(A*) (E) (F#m) (B) (Ewlkd) (Awlkd)(A2)
where'd it all go wrong my friday nite enfant
 F#mG#m
 all nite busz on a line
 F#mG#m
 it's only blood on the rime
 F#mB
 wrecks my head every time
 C#m/Bb
 it leads me on
(A*) (E) (F#m) (B) (C#m)
where'd it all go wrong my friday nite enfant
(A*) (E) (F#m) (B) (E2) (B/E) (E2) (B/E)
where'd it all go wrong my friday nite enfant

 E2)(B/EE2)(B/E
 tonite    tonite
 E2)(B/EE2)(B/E
 tonite, i'm running wild, i'm running (x4)
 E2)(B/EE
 tonite, i'm running wild

questions/comments/song requests/etc. dreamknot@hotmail.com
please visit www.geocities.com/littletabguy

END

+--------------------------------------------------------------------------+

| This file is the author's own work and represents their interpretation |
| of the song. You may only use this file for private study, scholarship, |
| or research. |
+--------------------------------------------------------------------------+


Ultimate-Guitar.Com © 2005


B C#m C#m/Bb E F#m G#m
variations - click chord images
Transpose chords:
Tuning:
Cool service:
View: Size:
A  A  A
Rating:
Layout:
  • Currently 0/5 Stars.
  • 1
  • 2
  • 3
  • 4
  • 5
 
Accuracy:
  • Currently 0/5 Stars.
  • 1
  • 2
  • 3
  • 4
  • 5
 
click stars to rate
Chordie recommends:
Check out JamPlay.com for online video guitar lessons
Songbook:
Login to add this song to your songbook
Support the artist
Preview/buy this song
MSN Music
Why this non-profit ad?

 
login to add comments/video/corrections