So Long Jimmy

James Blunt

-----------------------------------------|

------1-------1-------1-------1----------|
----2-------2-------2-------2------------|
-----------------------------------------|
--0-------0-------0-------0-------0-2----|
-----------------------------------------|
-----------------------------------------|
------1-------1-------1-------1----------|
----0-------0-------0-------0------------|
-----------------------------------------|
--3-------3-------3-------3--------------|
------------------------------------3----|
-----------------------------------------|
------1-------1-------1-------1----------|
----2-------2-------2-------2------------|
-----------------------------------------|
--3-------3-------3-------3--------------|
-----------------------------------------|
-----------------------------------------|
------1-------1-------1-------1----------|
----2-------2-------2-------2------------|
-----------------------------------------|
--3-------3-------3-------3--------------|
-----------------------------------------|
-----------------------------------------|
------0-------0-------0-------0----------|
----0-------0-------0-------0------------|
-----------------------------------------|
--2-------2-------2-------2--------------|
-----------------------------------------|
----------------------0-------0----------|
------0-------0-------3-------3----------|
----0-------0---------3-------3----------|
----------------------3-------3----------|
--2-------2-----------1-------1----------|
----------------------0-------0----------|
-----------------------------------------|
------1-------1-------1-------1----------|
----2-------2-------2-------2------------|
-----------------------------------------|
--0-------0-------0-------0--------------|
-----------------------------------------|
-----------------------------------------|
------1-------1-------1-------1----------|
----2-------2-------2-------2------------|
-----------------------------------------|
--0-------0-------0-------0-------0-2----|
-----------------------------------------|
-----------------------------------------|
------1-------1-------1-------1----------|
----0-------0-------0-------0------------|
-----------------------------------------|
--3-------3-------3-------3--------------|
------------------------------------3----|

 CEm
 So long, Jimmy, so long.
 AmC
Though you only stayed a moment,
 F
We all know that you're the one. Singing,
c Em
So long, Jimmy, so long.
 AmC
Sure we're glad for the experience,
 D
 We miss you now you've gone.
 F
We're just swimming in your soul 'cause,
 G
 We all wish we wrote this song.
 Am
Life goes on.
-----------------------------------------|
------1-------1-------1-------1----------|
----2-------2-------2-------2------------|
-----------------------------------------|
--0-------0-------0-------0--------------|
-----------------------------------------| X2

REPEAT AS BEFORE
I'm just so relieved that it's over.
We were hanging out going nowhere,
Digging how the guitar goes,
In a song that no one knows.
Did you burn that bridge yourself,
Or did the voodoo magic help?
Does everyone have a different take?
Are you just cool and I'm just baked?
Does everyone get mesmerized by your fire?
CORUS
INSTRUMENTAL REPEAT about 40 times or until fadeout
-----------------------------------------|
------1-------1-------1-------1----------|
----2-------2-------2-------2------------|
-----------------------------------------|
--0-------0-------0-------0--------------|
-----------------------------------------|


Sould be ok
A.Jarbol

END

+--------------------------------------------------------------------------+

| This file is the author's own work and represents their interpretation |
| of the song. You may only use this file for private study, scholarship, |
| or research. |
+--------------------------------------------------------------------------+


Ultimate-Guitar.Com © 2005


Am C D Em F G
variations - click chord images
Transpose chords:
Tuning:
Cool service:
View: Size:
A  A  A
Rating:
Layout:
  • Currently 1/5 Stars.
  • 1
  • 2
  • 3
  • 4
  • 5
 
Accuracy:
  • Currently 1/5 Stars.
  • 1
  • 2
  • 3
  • 4
  • 5
 
click stars to rate
Chordie recommends:
Learn how to play guitar at JamPlay.com
Songbook:
Login to add this song to your songbook
Support the artist
Preview/buy this song
MSN Music
Why this non-profit ad?

 
login to add comments/video/corrections