"yes"; ?> Monster Hospital by Metric - guitar chords, guitar tabs and lyrics - chordie

Monster Hospital

Metric

E------|-------------------------|

B-0~---|-------------------------|
G-0~---|-------------------------|
D------|------5-5-5-5-5-5-5-5----| x7
A------|------5-5-5-5-5-5-5-5----|
E------|------3-3-3-3-3-3-3-3----|

 Bb5Eb5A
E---------------------------------------------------------|
B----------------------5----5----5----5----5---5----5-5-5-|
G----------------------6----6----6----6----6---6----6-7-6-|
D-8-8-8--13-13-13--7-7--7-7--7-7--7-7--7-7--7-7--7-7------|
A-8-8-8--13-13-13--7-7--7-7--7-7--7-7--7-7--7-7--7-7------|
E-6-6-6--11-11-11--5-5--5-5--5-5--5-5--5-5--5-5--5-5------|


 G
E----------------------------------|
B-------0----0----0----0----0---0--|
G-------0----0----0----0----0---0--|
D---5-5--5-5--5-5--5-5--5-5--5-5---|  x 2
A---5-5--5-5--5-5--5-5--5-5--5-5---|
E-5\3-3--3-3--3-3--3-3--3-3--3-3---|


 Bb5Eb5ADCBbA
E-----------------------------------------------------------------|
B----------------------5---5------10------10-----8----6----5----5-|
G----------------------6---6------11------11-----9----7----6----6-|
D-8-8-8--13-13-13--7-7--7-7--12-12---12-12--10-10--8-8--7-7--7-7--|
A-8-8-8--13-13-13--7-7--7-7--12-12---12-12--10-10--8-8--7-7--7-7--|
E-6-6-6--11-11-11--5-5--5-5--10-10---10-10---8--8--6-6--5-5--5-5--|


 G
E----------------------------------|
B-------0----0----0----0----0---0--|
G-------0----0----0----0----0---0--|
D---5-5--5-5--5-5--5-5--5-5--5-5---|  x 1
A---5-5--5-5--5-5--5-5--5-5--5-5---|
E-5\3-3--3-3--3-3--3-3--3-3--3-3---|


 Bb5Eb5ADCBbA
E-----------------------------------------------------------------|
B----------------------5---5------10------10-----8----6----5----5-|
G----------------------6---6------11------11-----9----7----6----6-|
D-8-8-8--13-13-13--7-7--7-7--12-12---12-12--10-10--8-8--7-7--7-7--|
A-8-8-8--13-13-13--7-7--7-7--12-12---12-12--10-10--8-8--7-7--7-7--|
E-6-6-6--11-11-11--5-5--5-5--10-10---10-10---8--8--6-6--5-5--5-5--|


 DCBbA
E------------------------------------------------------|
B------10------10------10------10-----8----6-5-5-5-5-5-|
G------11------11------11------11-----9----7-6-6-6-6-5-|  x 1
D-12-12---12-12---12-12---12-12--10-10--8-8--7-7-7-7-7-|
A-12-12---12-12---12-12---12-12--10-10--8-8--7-7-7-7-7-|
E-10-10---10-10---10-10---10-10--8--8---6-6--5-5-5-5-5-|


Chorus
 G5Bb5Eb5C5F5C5Eb5
E-----------------------------------------------------------|
B-----------------------------------------------------------|
G--------------------8-8---5-5-5-5--10-10---5-5-5-5--8-8----|
D-5-5-5--8-8---8-8-8-8-8---5-5-5-5--10-10---5-5-5-5--8-8----|  x 3
A-5-5-5--8-8---8-8-8-6-6---3-3-3-3---8--8---3-3-3-3--6-6----|
E-3-3-3--6-6---6-6-6----------------------------------------|


 G
E----------------------------------|
B-------0----0----0----0----0---0--|
G-------0----0----0----0----0---0--|
D---5-5--5-5--5-5--5-5--5-5--5-5---|  x 1
A---5-5--5-5--5-5--5-5--5-5--5-5---|
E-5\3-3--3-3--3-3--3-3--3-3--3-3---|


Verse 2
 Bb5Eb5A
E---------------------------------------------------------|
B----------------------5----5----5----5----5---5----5-5-5-|
G----------------------6----6----6----6----6---6----6-7-6-|
D-8-8-8--13-13-13--7-7--7-7--7-7--7-7--7-7--7-7--7-7------|
A-8-8-8--13-13-13--7-7--7-7--7-7--7-7--7-7--7-7--7-7------|
E-6-6-6--11-11-11--5-5--5-5--5-5--5-5--5-5--5-5--5-5------|


 G
E----------------------------------|
B-------0----0----0----0----0---0--|
G-------0----0----0----0----0---0--|
D---5-5--5-5--5-5--5-5--5-5--5-5---|  x 1
A---5-5--5-5--5-5--5-5--5-5--5-5---|
E-5\3-3--3-3--3-3--3-3--3-3--3-3---|


 Bb5Eb5ADCBbA
E-----------------------------------------------------------------|
B----------------------5---5------10------10-----8----6----5----5-|
G----------------------6---6------11------11-----9----7----6----6-|
D-8-8-8--13-13-13--7-7--7-7--12-12---12-12--10-10--8-8--7-7--7-7--|
A-8-8-8--13-13-13--7-7--7-7--12-12---12-12--10-10--8-8--7-7--7-7--|
E-6-6-6--11-11-11--5-5--5-5--10-10---10-10---8--8--6-6--5-5--5-5--|


 DCBbA
E------------------------------------------------------|
B------10------10------10------10-----8----6-5-5-5-5-5-|
G------11------11------11------11-----9----7-6-6-6-6-5-|  x 1
D-12-12---12-12---12-12---12-12--10-10--8-8--7-7-7-7-7-|
A-12-12---12-12---12-12---12-12--10-10--8-8--7-7-7-7-7-|
E-10-10---10-10---10-10---10-10--8--8---6-6--5-5-5-5-5-|


Chorus
 G5Bb5Eb5C5F5C5Eb5
E-----------------------------------------------------------|
B-----------------------------------------------------------|
G--------------------8-8---5-5-5-5--10-10---5-5-5-5--8-8----|
D-5-5-5--8-8---8-8-8-8-8---5-5-5-5--10-10---5-5-5-5--8-8----|  x 4
A-5-5-5--8-8---8-8-8-6-6---3-3-3-3---8--8---3-3-3-3--6-6----|
E-3-3-3--6-6---6-6-6----------------------------------------|


 G
E----------------------------------|
B-------0----0----0----0----0---0--|
G-------0----0----0----0----0---0--|
D---5-5--5-5--5-5--5-5--5-5--5-5---|  x 1
A---5-5--5-5--5-5--5-5--5-5--5-5---|
E-5\3-3--3-3--3-3--3-3--3-3--3-3---|


Solo
Played over top of a couple bars of G A
E---------------------------------------------------|
B-----------------5~----------5--5--3--2--0--2--0~--|
G-----------------6~----------------------------0~--|
D------5----------7~--------------------------------|
A---------4--5----7~--------------------------------|
E--\6-----------5-5~--------------------------------|
E------------------------------------------------------------X\---|
B-----------------5~----------5--5--5--5--5--3--2--0---------X\---|
G-----------------6~-----------------------------------------X\---|
D------5----------7~-----------------------------------------X\---|
A---------4--5----7~-----------------------------------------X\---|
E--\6-----------5-5~-----------------------------------------X\---|


Chorus x 4
with this riff in the background (sounds almost like a kazoo)
E------------------------------------------------------|
B--6--8---6--8~---6--8--6--8---6--8--6--8---8--8--8--6-|
G------------------------------------------------------|
D------------------------------------------------------|
A------------------------------------------------------|
E------------------------------------------------------|


Tabbed by R. Liddell

END

+--------------------------------------------------------------------------+

| This file is the author's own work and represents their interpretation |
| of the song. You may only use this file for private study, scholarship, |
| or research. |
+--------------------------------------------------------------------------+


Ultimate-Guitar.Com © 2005


A Bb Bb5 C C5 D Eb5 F5 G G5
variations - click chord images
Transpose chords:
Tuning:
Cool service:
View: Size:
A  A  A
Rating:
Layout:
  • Currently 2.5/5 Stars.
  • 1
  • 2
  • 3
  • 4
  • 5
 
Accuracy:
  • Currently 3/5 Stars.
  • 1
  • 2
  • 3
  • 4
  • 5
 
click stars to rate
Chordie recommends:
Learn to play this song & others via video guitar lessons at JamPlay.com
Songbook:
Login to add this song to your songbook
Support the artist
Preview/buy this song
MSN Music
Why this non-profit ad?

 
login to add comments/video/corrections