|-------------------------------------------------------------|

|-------------------------------------------0-----------------|
|--------------------0--2------0---------0-----2p0---0--------|
|---7s9-7---5s7-5---------0--4---4--0h2------------4------0-0-|
|-5-------5---------------------------------------------------|
|-------------------------------------------------------------|

 G
 Another summer day
 D/F#
 Has come and gone away
 EmD
 In Paris and Rome
 CD
But I wanna go home   
 Mmmmmmmm
                                     
 G
 Maybe surrounded by
 D/F#
 A million people I
 EmD
 Still feel all alone
 C
I just wanna go home
 DG
Oh I miss you, you know

 CEm
And I?ve been keeping all the letters that I wrote to you
 A
Each one a line or two
 CD
?I?m fine baby, how are you??
|-------12-10----------|

|-10s12-------10s12----|
|-------------------12-|
|----------------------|
|----------------------|
|----------------------|
 CEm
Well I would send them but I know that it?s just not enough
 F
My words were cold and flat
 DDsusD
And you deserve more than that
|-----------------|

|-----------------|
|-2h4-2p0----0----|
|---------4-------|
|-----------------|
|-----------------|

 G
                                     
Another aerorplane
 D/F#
 Another sunny place
 EmD
 I?m lucky I know
 C
But I wanna go home
 DG
Mmmm, I?ve got to go home
|-7h8p7------7---|

|--------8-7-----|
|----------------|
|----------------|
|----------------|
|----------------|

 GDEmBm
Let me go home      
|----------10-------------10s12--|

|-------12-------------12--------|
|-12-11----------12-11-----------|
|--------------------------------|
|--------------------------------|
|--------------------------------|
 C
I?m just too far from where you are
 DG
 I wanna come home

Guitar Solo: (1:48)
|--------10~--10-12-12s14-----10-12----------------------|

|---------------------------12-------10s12---10-----------|
|-11-12-----------------------------------------12=s11----|
|---------------------------------------------------------|
|---------------------------------------------------------|
|---------------------------------------------------------|
|---------------------------------------------15-14---------|
|----10------------------------15-------------------15------|
|-12----11-----/12--/12-----------14s16-14-12----------14---|
|----------12--/14--/14--12---------------------------------|
|---------------------------14------------------------------|
|-----------------------------------------------------------|
|----------------------------------------15---------------|
|-15---------------------15-----------15----15s17---------|
|-----14s16--------12-14----14s16-------------------------|
|---------------------------------------------------------|
|---------------------------------------------------------|
|---------------------------------------------------------|

 CEm
And I feel just like I?m living someone else?s life
 A
It?s like I just stepped outside
 CD
When everything was going right
 C
And I know just why you could not
 Em
Come along with me
 F
But this was not your dream
 DDsusD
But you always believed in me
|-10s12s10-------------|

|-10s12s10-10s12s12----|
|-----------9s11s11-12-|
|-------------------12-|
|----------------------|
|----------------------|

 GD/F#
 Another winter day has come

And gone away
 EmD
 And even Paris and Rome
 C
And I wanna go home
 DG
 Let me go home
|-------12----10--|

|-10s12----12-----|
|-----------------|
|-----------------|
|-----------------|
|-----------------|

 G
 And I?m surrounded by
 D/F#
 A million people I
|-----15=s17--15-----|

|-/15----------------|
|--------------------|
|--------------------|
|--------------------|
|--------------------|
 G
 Still feel alone
 C
Oh, let go home
 DG
Oh, I miss you, you know

 GDEmBm
Let me go home      
 C
I?ve had my run

Baby, I?m done
 DG
 I gotta go home
 GDEmBm
Let me go home      
 C
It'll all be all right
 D
I?ll be home tonight
 G
I?m coming back home

Chords:
G: 320033
D/F#: 2x0232
Em: 022000
D: xx0232
C: x32010
A: x02220
F: 133211
Dsus: xx0233
Bm: x24432

END

+--------------------------------------------------------------------------+

| This file is the author's own work and represents their interpretation |
| of the song. You may only use this file for private study, scholarship, |
| or research. |
+--------------------------------------------------------------------------+


Ultimate-Guitar.Com © 2005


Corrected by kirati. View original
A Bm C D D/F# Dsus Em F G
variations - click chord images
Transpose chords:
Tuning:
Cool service:
View: Size:
A  A  A
Rating:
Layout:
  • Currently 3.1/5 Stars.
  • 1
  • 2
  • 3
  • 4
  • 5
 
Accuracy:
  • Currently 4.6/5 Stars.
  • 1
  • 2
  • 3
  • 4
  • 5
 
click stars to rate
Chordie recommends:
Learn how to play guitar at JamPlay.com
Songbook:
Login to add this song to your songbook
Support the artist
Preview/buy this song
MSN Music
Why this non-profit ad?

 
login to add comments/video/corrections