Guitar Tabs, Chords and Lyrics


   Various Artists


System of a Down,Forest.
 Tabbed by Jeremy,soadsugar12345@yahoo.com.
  
just remember.  the tuning for this song is from low to high: C,G,C,F,A,D.  With that in mind, here it is.

intro       (repeat 16xs, Palm mute the last 8 times)
-----------------------------------------
-----------------------------------------
-----------------------------------------
0------0-------5----------3-----------   = Riff 1
0------0-------5----------3-----------
0------0-------5----------3-----------

verse
-----------------------------------------
-----------------------------------------
-----------------------------------------
----------------------------------------
5-5-5-5-5-5-6-6-6-6-6-6-6-6-6
----------------------------------------
Riff 1 (4xs)
----------------------------------------
----------------------------------------
----------------------------------------
----------------------------------------
6-6-6-6-6-6-6-7-7-7-7-7-7-7-7
----------------------------------------
Riff 1 (4xs)
-----------------------------------------
-----------------------------------------
-----------------------------------------
----------------------------------------
5-5-5-5-5-5-6-6-6-6-6-6-6-6-6
----------------------------------------
Riff 1 (4xs)
--------------------------------------------------------------------
--------------------------------------------------------------------
--------------------------------------------------------------------
--------------------------------------------------------------------
6-6-6-6-6-7-7-7-7-7-5-5-5-5-5-6-6-6-6-6-7-7-7-7-7
--------------------------------------------------------------------

Chorus   (Repeat 4xs)
--------------------------------------------------------------------
--------------------------------------------------------------------
--------------------------------------------------------------------
------------------------------0--0----0---1--1---1---5---5--5
--1--3---1--0--------------0--0----0---1--1---1---5---5--5
-------------------5----3----0-0-----0---1--1---1---5---5--5

Riff 1 (8xs)

Verse

Chorus

(play after 2nd chorus)
-------------------------------------------------:II
-------------------------------------------------:II
-------------------------------------------------:II
-------------------------------------------------:II
-----1-----1-----1-----1-----0---------------:II
----------------------------------------5-------:II
Riff 1 8xs
---------------------------------------------------
---------------------------------------------------
---------------------------------------------------
-----------------------------1---1---1---1--0---
--1--1--1--1--0--------------------------------1
------------------------5--------------------------
Riff 1 4xs
-----------------------------------------------------------
-----------------------------------------------------------
-----------------------------------------------------------
-------------------1--1-1--1-0-----3--3--3--3--1--0
1-1-1-1-0-----------------------1----------------------
----------------5-----------------------------------------
Riff 1 4xs
-------------------------------------------------------------------
-------------------------------------------------------------------
-----------------0-0-0-0-------1-1-1-1-0----3-3-3-3-1-0-
3-3-3-3-1-0-------------3-1---------------3-------------------------------------------------------------------------------------
--------------------------------------------------------------------
 
palm muted  (4xs)
-------------------------------------------------------------
-------------------------------------------------------------
-------------------------------------------------------------
-0--0----0----3----0----0----0----0-----0---0-----0--
-0--0----0----3----0----0----0----0-----0---0-----0--
-0--0----0----3----0----0----0----0-----0---0-----0--

Verse

Chorus

Last two repeats of the last chorus -
------------------------------------------------------------------
------------------------------------------------------------------
------------------------------------------------------------------
------------------------(p)-0-0-0-0-0-1-1-1-1-1-5-5-5-5
-1--3--1--0----------(p)-0-0-0-0-0-1-1-1-1-1-5-5-5-5
----------------5--3---(p)-0-0-0-0-0-1-1-1-1-1-5-5-5-5

end on - 
-------
-------
-------
--0---
--0---
--0---
 
:: Ultimate Guitar Archive :: 
http://www.ultimate-guitar.com 





Important: The song above is NOT stored on the Chordie server. The original song is hosted at www.ultimate-guitar.com. Chordie works as a search engine and provides on-the-fly formatting. Chordie does not index songs against artists/composers will. To remove this song please click here.

This song is displayed as text-only. Transposing and tuning is only available for chordpro-songs.

Login - add to songbook

Rating click stars to rate

Layout
Accuracy

SHARE PAGE  




You need to log in to post comments