""; ?> Scar Tissue by Red Hot Chili Peppers - guitar chords, guitar tabs and lyrics - chordie

Scar Tissue

Red Hot Chili Peppers

INTRO:
GUITAR 1
e|-------------------------------------------------------------------------|
B|-------10------10-----10-----10------------------------------------------|
G|---------------------------------9--9s10---10-----10----10----10h9-------|
D|-------------------------------------------------------------------------|
A|--8---------8------8-----8--------------------------------------------0--|
E|---------------------------------8--8s10-------10----10----10------------|
e|-------------------------------------------------------------------------|
B|-------10------10-----10-----10---8--------------------------------------|
G|------------------------------------------9s10-------12h10-12h10---------|
D|-------------------------------------------------------------------------|
A|--8---------8------8---------8----8--------------------------------------|
E|------------------------------------------8s10---------------------------|


VERSE :

e|-------------------------------------------------------------------------|
B|-------10------10-----10-----10------------------------------------------|
G|---------------------------------9--9s10---10-----10----10-----10h9------|
D|-------------------------------------------------------------------------|
A|-8----------8------8-----8--------------------------------------------0--|
E|---------------------------------8--8s10-------10----10----10------------|

Scar tissue that I wish you saw Sarcastic mister know it all

e|------------------------------8------------------------------------------|
B|--------10-----10------10------------8---8h10////////-----10--8----------|
G|-----------------------------------------------------------------10--10--|
D|-------------------------------------------------------------------------|
A|-8----------8------8----------8------8---8----------------8---8--8---8---|
E|-------------------------------------------------------------------------|

Close your eyes and I'll kiss you 'cause With the birds I'll share

BRIDGE:
 FCDmCF

e|-------------------------------------------------------------------------|
B|-------10-10-------10-10----10-------------------------------------10----|
G|----10-10-10-10-10-10-10-10-10-10-10s12-10-10-10-10-10-10-10-10-9--10----|
D|----10-10-10-10-10-10-10-10-10-10-10s12-12-12-12-12-12-12-12-12-10-10----|
A|----8--8--8--8--8--8--8--8--8--8--8-s10-12-12-12-12-12-12-12-12-10-8-----|
E|----------------------------------8-s10-10-10-10-10-10-10-10-10-8--------|

With the birds I'll share This lonel_______y vie_________________w

 FCDmCF
e|-------------------------------------------------------------------------|
B|-------10-10-------10-10----10-------------------------------------10----|
G|----10-10-10-10-10-10-10-10-10-10-10s12-10-10-10-10-10-10-10-10-9--10----|
D|----10-10-10-10-10-10-10-10-10-10-10s12-12-12-12-12-12-12-12-12-10-10----|
A|----8--8--8--8--8--8--8--8--8--8--8-s10-12-12-12-12-12-12-12-12-10-8-----|
E|----------------------------------8-s10-10-10-10-10-10-10-10-10-8--------|

With the birds I'll share This lonel_______y vie_________________w

VERSE:

e|-------------------------------------------------------------------------|
B|-------10------10-----10-----10------------------------------------------|
G|---------------------------------9--9s10---10-----10----10-----10/9------|
D|-------------------------------------------------------------------------|
A|-8----------8------8-----8--------------------------------------------0--|
E|---------------------------------8--8s10-------10----10----10------------|

Push me up against the wa____ll Young Kentuncky girl in a push-up bra

e|---------------------10--8------------------------13----12----10----8----|
B|-----10----10---10----------8h10-----------------------------------------|
G|-------------------------------------------------------------------------|
D|--------------------------------------------------0-----0-----0-----0----|
A|-8-------8----8------8---8--8--------------------------------------------|
E|-------------------------------------------------------------------------|

Fallin' all over myself To lick your heart and taste your health 'cause

BRIDGE:

 FCDmCF
e|-------------------------------------------------------------------------|
B|-------10-10-------10-10----10-------------------------------------10----|
G|----10-10-10-10-10-10-10-10-10-10-10s12-10-10-10-10-10-10-10-10-9--10----|
D|----10-10-10-10-10-10-10-10-10-10-10s12-12-12-12-12-12-12-12-12-10-10----|
A|----8--8--8--8--8--8--8--8--8--8--8-s10-12-12-12-12-12-12-12-12-10-8-----|
E|----------------------------------8-s10-10-10-10-10-10-10-10-10-8--------|

With the birds I'll share This lonel_______y vie_________________w

 FCDmCF
e|-------------------------------------------------------------------------|
B|-------10-10-------10-10----10-------------------------------------10----|
G|----10-10-10-10-10-10-10-10-10-10-10s12-10-10-10-10-10-10-10-10-9--10----|
D|----10-10-10-10-10-10-10-10-10-10-10s12-12-12-12-12-12-12-12-12-10-10----|
A|----8--8--8--8--8--8--8--8--8--8--8-s10-12-12-12-12-12-12-12-12-10-8-----|
E|----------------------------------8-s10-10-10-10-10-10-10-10-10-8--------|

With the birds I'll share This lonel_______y vie_________________w
 FCDmCF
e|-------------------------------------------------------------------------|
B|-------10-10-------10-10----10-------------------------------------10----|
G|----10-10-10-10-10-10-10-10-10-10-10s12-10-10-10-10-10-10-10-10-9--10----|
D|----10-10-10-10-10-10-10-10-10-10-10s12-12-12-12-12-12-12-12-12-10-10----|
A|----8--8--8--8--8--8--8--8--8--8--8-s10-12-12-12-12-12-12-12-12-10-8-----|
E|----------------------------------8-s10-10-10-10-10-10-10-10-10-8--------|

With the birds I'll share This lonel_______y vie__________________

GUITAR SOLO 1:

GUITAR 1
 FC
|e|------------------------------------------------------------------------|
|B|-----1--1-----1--1--1--1-----1--------1--1------------------------------|
|G|-----2--2--2--2-----2--2--2--2--2--2--2--2---9---9---9---9---9---9------|
|D|-----3--3--3--3--3--3--3--3--3--3--3--3--3---10--10--10--10--10--10-----|
|A|-----3--3--3-----3--3--3--3-----3--3---------10--10--10--10--10--10-----|
|E|---------------------------------------------8---8---8---8---8---8------|

|GUITAR 2

|e|-8s5-5------------------------------5s3-3------------------3/5-5--------|
|B|------------------------------------------------------------------------|
|G|------------------------------------------------------------------------|
|D|------------------------------------------------------------------------|
|A|------------------------------------------------------------------------|
|E|------------------------------------------------------------------------|

_________________w

|e|------------------------------------------------------------------------|
|B|------------------------------------------------------------------------|
|G|-----10--10--10--10--10-------------------------------------------------|
|D|-----12--12--12--12--12-------------------------------------------------|
|A|-----12--12--12--12--12-------------------------------------------------|
|E|-----10--10--10--10--10-------------------------------------------------|

|
|e|---------5s7---7s8---8///////////////////-------------------------------|
|B|------------------------------------------------------------------------|
|G|------------------------------------------------------------------------|
|D|------------------------------------------------------------------------|
|A|------------------------------------------------------------------------|
|E|------------------------------------------------------------------------|


VERSE:

e|-------------------------------------------------------------------------|
B|-------10------10-----10-----10------------------------------------------|
G|---------------------------------9--9s10---10----10-----12p10----12p10---|
D|-------------------------------------------------------------------------|
A|-8----------8------8-----8-----------------------------------------------|
E|---------------------------------8--8s10---10----10----------------------|

Blood loss in a bathroom stall Southern girl with scarlet drawl

e|------------------------------8-------------------------------8----------|
B|--------10-----10------10------------8---8h10////-10------10-----11--10--|
G|-------------------------------------------------------------------------|
D|-------------------------------------------------------------------------|
A|-8----------8------8----------8------8---8----------------8---8--8---8---|
E|-------------------------------------------------------------------------|

Wave good-bye to ma and pa 'cause With the birds I'll share

BRIDGE: SAME THAT FIRST BRIDGE.

VERSE:

e|-------------------------------------------------------------------------|
B|-------10------10-----10-----10------------------------------------------|
G|---------------------------------9--9s10---10-----10----10-----10h9------|
D|-------------------------------------------------------------------------|
A|-8----------8------8-----8--------------------------------------------0--|
E|---------------------------------8--8s10-------10----10----10------------|

Soft spoken with the broken jaw Step outside but not to brawlin'

e|------------------------------8------------------------------------------|
B|--------10-----10------10------------8---8h10////////-----10--8----------|
G|-----------------------------------------------------------------10--10--|
D|-------------------------------------------------------------------------|
A|-8----------8------8----------8------8---8----------------8---8--8---8---|
E|-------------------------------------------------------------------------|

Autumn's sweet we call it fall I'll make it to the moom if I got to crawl and

BRIDGE: SAME OF SECOND BRIDGE

GUITAR SOLO 2:

 D5
|e|------------------------------------------------------------------------|
|B|------------------------------------------------------------------------|
|G|------7-----------7-----------7-------7-------7-------7-----------7-----|
|D|----------7-----------7-------------------7---------------7-------------|
|A|--5-----------5---5-------5-------5-----------5---5-----------5---------|
|E|------------------------------------------------------------------------|

|

|e|--10~~~~~~~~~~~~~~---------------------------------------------10s8~~~~~|
|B|------------------------------------------------------------------------|
|G|------------------------------------------------------------------------|
|D|------------------------------------------------------------------------|
|A|------------------------------------------------------------------------|
|E|------------------------------------------------------------------------|

 C5
|e|------------------------------------------------------------------------|
|B|------------------------------------------------------------------------|
|G|----------7-------7-------7-------5-----------5-----------5-------5-----|
|D|--7-------------------7---------------5-----------5---------------------|
|A|------5-------5-----------5---3-----------3---3-------3-------3---------|
|E|------------------------------------------------------------------------|

|
|e|---8s5-5~~~~~~~~~~~--------5s3-3~~~~~~~~~------------8s5--5~~~~~~-------|
|B|------------------------------------------------------------------------|
|G|------------------------------------------------------------------------|
|D|------------------------------------------------------------------------|
|A|------------------------------------------------------------------------|
|E|------------------------------------------------------------------------|

 D5
|e|------------------------------------------------------------------------|
|B|------------------------------------------------------------------------|
|G|-------5-------7-----------7-----------7-------7-------7----------------|
|D|---5---------------7-----------7-------------------7--------------------|
|A|-------3---5-----------5---5-------5-------5-----------5----------------|
|E|------------------------------------------------------------------------|

|
|e|------------------------------------------------------------------------|
|B|------------------------------------------------------------------------|
|G|------------------------------------------------------------------------|
|D|------------------------------------------------------------------------|
|A|------------------------------------------------------------------------|
|E|------------------------------------------------------------------------|

 D5
|e|------------------------------------------------------------------------|
|B|------------------------------------------------------------------------|
|G|------7-----------7-----------7-------7-------7-------7-----------7-----|
|D|----------7-----------7-------------------7---------------7-------------|
|A|--5-----------5---5-------5-------5-----------5---5-----------5---------|
|E|------------------------------------------------------------------------|

|
|e|--10-----------------------12----------------------8--------------------|
|B|------------------------------------------------------------------------|
|G|------------------------------------------------------------------------|
|D|------------------------------------------------------------------------|
|A|------------------------------------------------------------------------|
|E|------------------------------------------------------------------------|

 C5
|e|------------------------------------------------------------------------|
|B|------------------------------------------------------------------------|
|G|----------7-------7-------7-------5-----------5-----------5-------5-----|
|D|--7-------------------7---------------5-----------5---------------------|
|A|------5-------5-----------5---3-----------3---3-------3-------3---------|
|E|------------------------------------------------------------------------|

|
|e|---------------------------------5------------------------------8s3-----|
|B|------------------------------------------------------------------------|
|G|------------------------------------------------------------------------|
|D|------------------------------------------------------------------------|
|A|------------------------------------------------------------------------|
|E|------------------------------------------------------------------------|

 D5
|e|------------------------------------------------------------------------|
|B|------------------------------------------------------------------------|
|G|-------5-------7-----------7-----------7-------7-------7----------------|
|D|---5---------------7-----------7-------------------7--------------------|
|A|-------3---5-----------5---5-------5-------5-----------5----------------|
|E|------------------------------------------------------------------------|

|
|e|-----------8s5--------------10-----------11-----------12----------------|
|B|------------------------------------------------------------------------|
|G|------------------------------------------------------------------------|
|D|------------------------------------------------------------------------|
|A|------------------------------------------------------------------------|
|E|------------------------------------------------------------------------|


VERSE:

e|-------------------------------------------------------------------------|
B|-------10------10-----10-----10------------------------------------------|
G|---------------------------------9--9s10---10-----10----10-----10h9------|
D|-------------------------------------------------------------------------|
A|-8----------8------8-----8--------------------------------------------0--|
E|---------------------------------8--8s10-------10----10----10------------|

Scar tissue that I wish you saw Sarcastic mister know it all

e|------------------------------8------------------------------------------|
B|--------10-----10------10------------8---8h10////////-----10--8----------|
G|-----------------------------------------------------------------10--10--|
D|-------------------------------------------------------------------------|
A|-8----------8------8----------8------8---8----------------8---8--8---8---|
E|-------------------------------------------------------------------------|

Close your eyes and I'll kiss you 'cause With the birds I'll share

BRIDGE:

 FCDmCF
e|-------------------------------------------------------------------------|
B|-------10-10-------10-10----10-------------------------------------10----|
G|----10-10-10-10-10-10-10-10-10-10-10s12-10-10-10-10-10-10-10-10-9--10----|
D|----10-10-10-10-10-10-10-10-10-10-10s12-12-12-12-12-12-12-12-12-10-10----|
A|----8--8--8--8--8--8--8--8--8--8--8-s10-12-12-12-12-12-12-12-12-10-8-----|
E|----------------------------------8-s10-10-10-10-10-10-10-10-10-8--------|

With the birds I'll share This lonel_______y vie_________________w

 FCDmCF
e|-------------------------------------------------------------------------|
B|-------10-10-------10-10----10-------------------------------------10----|
G|----10-10-10-10-10-10-10-10-10-10-10s12-10-10-10-10-10-10-10-10-9--10----|
D|----10-10-10-10-10-10-10-10-10-10-10s12-12-12-12-12-12-12-12-12-10-10----|
A|----8--8--8--8--8--8--8--8--8--8--8-s10-12-12-12-12-12-12-12-12-10-8-----|
E|----------------------------------8-s10-10-10-10-10-10-10-10-10-8--------|

With the birds I'll share This lonel_______y vie_________________w
 FCDmCF
e|-------------------------------------------------------------------------|
B|-------10-10-------10-10----10-------------------------------------10----|
G|----10-10-10-10-10-10-10-10-10-10-10s12-10-10-10-10-10-10-10-10-9--10----|
D|----10-10-10-10-10-10-10-10-10-10-10s12-12-12-12-12-12-12-12-12-10-10----|
A|----8--8--8--8--8--8--8--8--8--8--8-s10-12-12-12-12-12-12-12-12-10-8-----|
E|----------------------------------8-s10-10-10-10-10-10-10-10-10-8--------|

With the birds I'll share This lone_______y vie__________________

GUITAR SOLO 3:

|.DURING THIS SOLO THE FIRST GUITAR ONLY STUMS THIS THE NUMBER OF TIMES .|
|.YOU THINK IT'S NECESSARY .|
|.|e|---------------------------------------------------------------------|.|
|.|B|---------------------------------------------------------------------|.|
|.|G|-------7--7--7--7-X--7--7--7--7-X--5--5--5--5-X--7--7--7--7----------|.|
|.|D|-------7--7--7--7-X--7--7--7--7-X--5--5--5--5-X--7--7--7--7----------|.|
|.|A|-------5--5--5--5-X--5--5--5--5-X--3--3--3--3-X--5--5--5--5----------|.|
|.|E|---------------------------------------------------------------------|.|
e|--17----17s15----15----17s12----12/13----10---10----8h10----10p8---------|
B|-------------------------------------------------------------------------|
G|-------------------------------------------------------------------------|
D|-------------------------------------------------------------------------|
A|-------------------------------------------------------------------------|
E|-------------------------------------------------------------------------|

_________________w

e|--8h10----10p8----10----8s5----5----8s3---3----8s5----5--------------5---|
B|-----------------------------------------------------------4b5r4---------|
G|-------------------------------------------------------------------------|
D|-------------------------------------------------------------------------|
A|-------------------------------------------------------------------------|
E|-------------------------------------------------------------------------|
e|---5-----5---5----5--------------------------------------------5------5--|
B|------------------------3h5----3----3s5-------1----1h3-------------------|
G|----------------------------------------------------------2--------------|
D|-------------------------------------------------------------------------|
A|-------------------------------------------------------------------------|
E|-------------------------------------------------------------------------|
e|---5-----13-----12----8s10-----5-----5s8------3------3s5-----------------|
B|-------------------------------------------------------------------------|
G|-------------------------------------------------------------------------|
D|-------------------------------------------------------------------------|
A|-------------------------------------------------------------------------|
E|-------------------------------------------------------------------------|


END

+--------------------------------------------------------------------------+

| This file is the author's own work and represents their interpretation |
| of the song. You may only use this file for private study, scholarship, |
| or research. |
+--------------------------------------------------------------------------+


Ultimate-Guitar.Com © 2005


C C5 D5 Dm F
variations - click chord images
Transpose chords:
Tuning:
Cool service:
View: Size:
A  A  A
Rating:
Layout:
  • Currently 0/5 Stars.
  • 1
  • 2
  • 3
  • 4
  • 5
 
Accuracy:
  • Currently 0/5 Stars.
  • 1
  • 2
  • 3
  • 4
  • 5
 
click stars to rate
Chordie recommends:
Learn to play guitar with video-based, online guitar lessons at JamPlay.com
Songbook:
Login to add this song to your songbook
Support the artist
Preview/buy this song
MSN Music
Why this non-profit ad?

 
login to add comments/video/corrections