Walk On Boy Live

Doc Watson

 BminA/BminF#7DmajGmajF#majE/F#majF#/Bmin
 G44324334
 D   4      4      2      0      5      4      4      4
A 2 0 4 x 5 4 4 x
E x x 2 x 3 2 0 2

Intro - This lead starts of the song, with chords behind.
E----------------|-------------------|-----------------------------------|
B-/12-12-12-10---|---12-12-10--------|-----------------------------------|
G-------------11-|------------11-9-7-|--11-9-7-9-7-----------------------|
D----------------|-------------------|-------------9-7-9------7-9--------|
A----------------|-------------------|---------------------/9------------|
E----------------|-------------------|-----------------------------------|


Verse/Chorus
------------


I was born one morning, the
rain a pourin' down. I

 BminA/BminF#7
 12341234
E  |--------2-----2---------2----2-|--------2------2-2------2-2-------|
B  |--------3-----3---------3----3-|--------2------2-2------2-2-------|
G  |--------4-----4---------4----4-|--------3------3-3------3-3-------|  x2
D  |--------4-----4---------4----4-|--------2------2-2------2-2-------|
A  |2---------------0--------------|--------4------4-4------4-4-------|
E  |-------------------------------|2----------------2----------------|


heard my mammy say to my pappy let's

 BminA/BminDmajGmaj
 12341234
E  |--------2-----2---------2----2-|--------2------2-3--------3-----3-|
B  |--------3-----3---------3----3-|--------3------3-3--------3-----3-|
G  |--------4-----4---------4----4-|--------2------2-4--------4-----4-|
D  |--------4-----4---------4----4-|0----------------5--------5-----5-|
A  |2---------------0--------------|-----------------5--------5-----5-|
E  |-------------------------------|-----------------3--------3-----3-|


call em John Hen- ry Brown. Walk on Boy.

 F#majE/F#majBminF#/BminA/Bmin
 12341234
E  |--------2-----2---------2----2-|--------2------2--------2-------2-|
B  |--------2-----2---------2----2-|--------3------3--------3-------3-|
G  |--------3-----3---------3----3-|--------4------4--------4-------4-|
D  |--------2-----2---------2----2-|--------4------4--------4-------4-|
A  |--------4-----4---------4----4-|2-------------------------0-------|
E  |2---------------0--------------|-----------------2----------------|

 BminBminA/Bmin
 12341234
E  |--------2------2------2-2------|--------2-----2---------2----2----|
B  |--------3------3------3-3------|--------3-----3---------3----3----|
G  |--------4------4------4-4------|--------4-----4---------4----4----|
D  |--------4------4------4-4------|--------4-----4---------4----4----|
A  |2------------------------------|2---------------0-----------------|
E  |-------------------------------|----------------------------------|


Walk on down the road.

 BminA/BminF#7
 12341234
E  |--------2-----2---------2----2-|--------2------2-2------2-2-------|
B  |--------3-----3---------3----3-|--------2------2-2------2-2-------|
G  |--------4-----4---------4----4-|--------3------3-3------3-3-------|
D  |--------4-----4---------4----4-|--------2------2-2------2-2-------|
A  |2---------------0--------------|--------4------4-4------4-4-------|
E  |-------------------------------|2----------------2----------------|


Ain't no- body in the whole wide world gonna

 BminA/BminDmajGmaj
 12341234
E  |--------2-----2---------2----2-|--------2------2-3--------3-----3-|
B  |--------3-----3---------3----3-|--------3------3-3--------3-----3-|
G  |--------4-----4---------4----4-|--------2------2-4--------4-----4-|
D  |--------4-----4---------4----4-|0----------------5--------5-----5-|
A  |2---------------0--------------|-----------------5--------5-----5-|
E  |-------------------------------|-----------------3--------3-----3-|


help you carry your load.

 F#majE/F#majBminF#/BminA/Bmin
 12341234
E  |--------2-----2---------2----2-|--------2------2--------2-------2-|
B  |--------2-----2---------2----2-|--------3------3--------3-------3-|
G  |--------3-----3---------3----3-|--------4------4--------4-------4-|
D  |--------2-----2---------2----2-|--------4------4--------4-------4-|
A  |--------4-----4---------4----4-|2-------------------------0-------|
E  |2---------------0--------------|-----------------2----------------|


 BminF#/Bmin
 1234
E  |--------2-----2---------2----2-| |
B  |--------3-----3---------3----3-| |
G  |--------4-----4---------4----4-|.|  repeat as needed.
D  |--------4-----4---------4----4-|.|
A  |2------------------------------| |
E  |----------------2--------------| |


This is when the first solo comes in. It is used again later in the song when Doc
plays along at a lower position on the neck. Using the same formations this can
easily be figured out.
For this bar, listen
for the two differnt rythems
E-------------------------|------------10-------------|
B--/12-12-12-10-----------|------10-12----12-10----10-|
G---------------11-9-11-x2|----11----------------11---|
D-------------------------|---------------------------|
A-------------------------|---------------------------|
E-------------------------|---------------------------|
E------------------------------------|
B-/12-12-10-------/7-----------------|
G----------11-9-7----9-7-9-7---------|
D----------------------------9-7-9---|
A------------------------------------|
E------------------------------------|
E----------------------|-------------------|----------10------------|
B----------------------|-------7-7-----7-7-|----10-12----12-10----10|
G---/7-7---------------|---7-9-----9-7-----|-11----------------11---|
D-------9--9-9p7---7-9-|-9-----------------|------------------------|
A----------------9-----|-------------------|------------------------|
E----------------------|-------------------|------------------------|
E|----------------------------------------------|
B|-12-12-10-----------7-------------------------|
G|----------11-9-7------9-7-9-7-----------------|
D|------------------------------9-7-9-----7-9---|
A|-------------------------------------/9-------|
E|----------------------------------------------|


END

+--------------------------------------------------------------------------+

| This file is the author's own work and represents their interpretation |
| of the song. You may only use this file for private study, scholarship, |
| or research. |
+--------------------------------------------------------------------------+


Ultimate-Guitar.Com © 2005


Bmin Dmaj F#7 F#maj G Gmaj
variations - click chord images
Transpose chords:
Tuning:
Cool service:
View: Size:
A  A  A
Rating:
Layout:
  • Currently 0/5 Stars.
  • 1
  • 2
  • 3
  • 4
  • 5
 
Accuracy:
  • Currently 0/5 Stars.
  • 1
  • 2
  • 3
  • 4
  • 5
 
click stars to rate
Chordie recommends:
Get acoustic guitar lessons and electric guitar lessons at JamPlay.com
Songbook:
Login to add this song to your songbook
Support the artist
Preview/buy this song
MSN Music
Why this non-profit ad?

 
login to add comments/video/corrections