Kryptonite

3 Doors Down



-----------------------------------------------------------------------


 BmGA
e|--------------------------------|
B|-------3---------------------0--|
G|-----4---4---0-------0-2---2----|
D|---4-------4-------------2------|
A|-2---------------2--------------|
E|---------------3----------------|

Fill
 BmGA
e|-------------------------0-----|
B|-------3-------------------0---|
G|-----4---4---0-------0-2-----0-|
D|---4-------4-------------------|
A|-2---------------2-------------|
E|---------------3---------------|

Solo
e|--------------------------------------------------------|
B|--------------------------------------------------------|
G|--------------------------------------------------------|
D|--------------------------------------------------------|
A|--4-5-4-5-4/-7-5-4-5-4---------------57575757-45454545-0|
E|7----------------------5-7-5-7-5-7-5--------------------|

Interlude
e|-2-------2-------3-------|
B|---3-------2-------3-----|
G|-----4-------2-------4---|
D|-------------------------|
A|-------------------------|
E|-------------------------|
-----------------------------------------------------------------------

Intro x2
Intro (with chords)
Fill
Verse
Intro
 BmGA
       I took a walk around the world to ease my troubled mind
Intro
 BmGA
       I left my body lying somewhere in the sands of time
Intro
 BmGA
       But I watched the world float to the dark side of the moon
Fill
 BmGA
       I feel theres nothing I can do        Yeh
 BmGA
                 Intro
 BmGA
       I watched the world float to the dark side of the moon
Fill
 BmGA
       After all I knew it had to be something to do with you
Intro
 BmGA
       I really don't mind what happens now and then
Fill
 BmGA
       As long as youll be my friend at the end
CHORUS
If I go crazy then will you still call me super man?
e|--------------------------------------------------------|
B|--------------------------------------------------------|
G|--------------------------------------------------------|
D|-9----9----9-----9------/--5---------5-------7-----7----|
A|-9----9----9-----9------/--5---------5-------7-----7----|
E|-7-77-7-77-7-77--7--77--/--3---3-3---3—-3-3--5-5-5-5-55-|

If im alive and well will you be there holding my hand?
e|------------------------------------------------------------|
B|------------------------------------------------------------|
G|------------------------------------------------------------|
D|------------------------------------------------------------|
A|-9----9----9--------9--------/2------2------5-------4----0--|
E|-7-77-7-77-7---7-7--7---7-7--/0-—00--0-00-0-----------------|

Ill keep you by my side with my super human mind
e|---------------------------------------------------|
B|---------------------------------------------------|
G|---------------------------------------------------|
D|-9----9--------9-----9-----/---5----5----7----7----|
A|-9----9--------9-----9-----/---5----5----7----7----|
E|-7-77-7---7-7--7-7-7-7—-7-7/---3-33-3-33-5-55-5-55-|

Kryptonite
e|------------------------------------------|
B|------------------------------------------|
G|------------------------------------------|
D|------------------------------------------|
A|-9------9----9----9-99/-22222222-44444444-|
E|-7--77--7-77-7-77-7-77/-00000000-22222222-|

 BmGA
             Verse
Intro
 BmGABm
       You call me strong you call me weak but still your secrets I keep
Fill
 GA
       You took for granted all the times I never let you down
Intro
 BmGABm
       You stumbled in and bumped your head if not for me then youd be dead
Fill
 GA
       I picked you up and put you back on solid ground
CHORUS
If I go crazy then will you still call me super man?
e|--------------------------------------------------------|
B|--------------------------------------------------------|
G|--------------------------------------------------------|
D|-9----9----9-----9------/--5---------5-------7-----7----|
A|-9----9----9-----9------/--5---------5-------7-----7----|
E|-7-77-7-77-7-77--7--77--/--3---3-3---3—-3-3--5-5-5-5-55-|

If im alive and well will you be there holding my hand?
e|------------------------------------------------------------|
B|------------------------------------------------------------|
G|------------------------------------------------------------|
D|------------------------------------------------------------|
A|-9----9----9--------9--------/2------2------5-------4----0--|
E|-7-77-7-77-7---7-7--7---7-7--/0-—00--0-00-0-----------------|

Ill keep you by my side with my super human mind
e|---------------------------------------------------|
B|---------------------------------------------------|
G|---------------------------------------------------|
D|-9----9--------9-----9-----/---5----5----7----7----|
A|-9----9--------9-----9-----/---5----5----7----7----|
E|-7-77-7---7-7--7-7-7-7—-7-7/---3-33-3-33-5-55-5-55-|

Kryptonite
e|------------------------------------------|
B|------------------------------------------|
G|------------------------------------------|
D|------------------------------------------|
A|-9------9----9----9-99/-22222222-44444444-|
E|-7--77--7-77-7-77-7-77/-00000000-22222222-|

Solo x2
 BmGA
        Interlude
 BmGA
   If I go crazy then will you still call me super man?
Interlude
 BmGABm
   If im alive and well will you be there holding my hand?
Interlude
 GABm
  Ill keep you by my side with my super human mind
Interlude
 GA
  Kryptonite        Yeah
CHORUS
If I go crazy then will you still call me super man?
e|--------------------------------------------------------|
B|--------------------------------------------------------|
G|--------------------------------------------------------|
D|-9----9----9-----9------/--5---------5-------7-----7----|
A|-9----9----9-----9------/--5---------5-------7-----7----|
E|-7-77-7-77-7-77--7--77--/--3---3-3---3—-3-3--5-5-5-5-55-|

If im alive and well will you be there holding my hand?
e|------------------------------------------------------------|
B|------------------------------------------------------------|
G|------------------------------------------------------------|
D|------------------------------------------------------------|
A|-9----9----9--------9--------/2------2------5-------4----0--|
E|-7-77-7-77-7---7-7--7---7-7--/0-—00--0-00-0-----------------|

Ill keep you by my side with my super human mind
e|---------------------------------------------------|
B|---------------------------------------------------|
G|---------------------------------------------------|
D|-9----9--------9-----9-----/---5----5----7----7----|
A|-9----9--------9-----9-----/---5----5----7----7----|
E|-7-77-7---7-7--7-7-7-7—-7-7/---3-33-3-33-5-55-5-55-|

Kryptonite
e|------------------------------------------|
B|------------------------------------------|
G|------------------------------------------|
D|------------------------------------------|
A|-9------9----9----9-99/-22222222-44444444-|
E|-7--77--7-77-7-77-7-77/-00000000-22222222-|

Outro
Wowowow Wowowow
e|--------------------------------------------------------|
B|--------------------------------------------------------|
G|--------------------------------------------------------|
D|--------------------------------------------------------|
A|--4-5-4-5-4/-7-5-4-5-4---------------57575757-45454545-0|
E|7----------------------5-7-5-7-5-7-5--------------------|

Wowowow Wowowow
e|--------------------------------------------------------|
B|--------------------------------------------------------|
G|--------------------------------------------------------|
D|--------------------------------------------------------|
A|--4-5-4-5-4/9-7-5-7-5---------------57575757-45454545-0-|
E|7---------------------5-7-5-7-5-7-5---------------------|

END
END
+--------------------------------------------------------------------------+

| This file is the author's own work and represents their interpretation |
| of the song. You may only use this file for private study, scholarship, |
| or research. |
+--------------------------------------------------------------------------+

Ultimate-Guitar.Com © 2005


Corrected by wasuli_j@yahoo.com. View original
A Bm G
variations - click chord images
Transpose chords:
Tuning:
Cool service:
View: Size:
A  A  A
Rating:
Layout:
  • Currently 4.2/5 Stars.
  • 1
  • 2
  • 3
  • 4
  • 5
 
Accuracy:
  • Currently 4.2/5 Stars.
  • 1
  • 2
  • 3
  • 4
  • 5
 
click stars to rate
Chordie recommends:
Learn to play songs at Jamplay.com with video guitar lessons
Songbook:
Login to add this song to your songbook
Support the artist
Preview/buy this song
MSN Music
Why this non-profit ad?

 
login to add comments/video/corrections