Guitar Tabs, Chords and Lyrics


Lately   David Gray



| Ultimate Guitar Tabs Archive - your #1 source for tabs!               |
| http://www.ultimate-guitar.com/                                       |
|                                                                       |
| Over 150,000 of guitar, guitar pro and bass tabs! Also lessons, news, |
| columns and guitar forums!                                            |


Artist: David Gray
Song: Lately


Artist : David Gray
Song : Lately
Album : Life In Slow Motion
Tabbed By : Jo Lefebure (whipy@hotmail.com)

--------------------------------------------

Capo 5:

Verses and Chorus:
e|----------------------------------|
b|------1---------------1-----------|
g|------0----2-0-2------2-0--2-0----|
d|----2---0--3---3----2------3---0--|
a|--3---------------0---------------|
e|----------------------------------|

Bridge (listen to the song for exact timing):
e|------3~----------------1~-1----------|------3~----------------1~-1----------|
b|------3~--1-0-----------1~-1----------|------3~--1-0-----------1~-1----------|
g|------0~------2-0-------2~-2-----0----|------0~------2-0-------2~-2-----0----|
d|------0~----------------3~-3----------|------0~----------------3~-3----------|
a|------2~----------------3~-3-2/3---3--|------2~----------------3~-3-2/3---3--|
e|--3~~--------------1~~----------------|--3~~---------------1~~---------------|
    some... where did...       if i        know...           eyes...

e|------3~----------------1~-1----------|------3~-------------------1~~--|
b|------3~--1-0-----------1~-1----------|------3~--1-0-----------1--1~~--|
g|------0~------2-0-------2~-2-----0----|------0~------2-0-------2--2~~--|
d|------0~----------------3~-3----------|------0~--------------2----3~~--|
a|------2~----------------3~-3-2/3---3--|------2~------------0------3~~--|
e|--3~~--------------1~~----------------|--3~~----------------------1~~--|
    no...   gave it...         in ad-      vance...          glance...

END

+--------------------------------------------------------------------------+
| This file is the author's own work and represents their interpretation   |
| of the song. You may only use this file for private study, scholarship,  |
| or research.                                                             |
+--------------------------------------------------------------------------+



Important: The song above is NOT stored on the Chordie server. The original song is hosted at www.ultimate-guitar.com. Chordie works as a search engine and provides on-the-fly formatting. Chordie does not index songs against artists/composers will. To remove this song please click here.

This song is displayed as text-only. Transposing and tuning is only available for chordpro-songs.

Login - add to songbook

Rating click stars to rate

Layout
Accuracy

SHARE PAGE  




You need to log in to post comments