eToCache5 = ""; ?> Welcome To The Cruel World by Ben Harper - guitar chords, guitar tabs and lyrics - chordie

Welcome To The Cruel World

Ben Harper

------------------------------------------------------------------------- 

----------------------------------------------------------------------------
|--------1-0------------------|-------1-0----------------------||
|---------------------3-----1-|-------------------3-1------1---||
|-------------------3---------|-----------------3-----2-3------||
|-----------------3-------3---|-----3---------3----------------||
|-----3---------1-------------|---3---------1------------------||
|--1--------------------1-----|-1--------------------------1---||
|--------1-0--------------------------------------------||
|-------------------3--1------------------------1--1----||
|-----------------3-------3p2h3----2--0------2----------||
|---------------3---------------3----------3------------||
|-----3-------1--------------------------3--------------||
|--1-------------------1--------1-----0----1----0--1----||
|--------------------------------|
|--------------------------------|
|2/3---p---0---------------------|
|2/3---p---0-------------------x-|
|----------------------x-----x---|
|--------------------------x-----|
|--------------------------------|--------------------------------|
|--------------------------------|--------------------------------|
|3-/-2-------0-------------------|0---0---2---0---3---0---5-/-3--0|
|3-/-2-------0-----------------x-|0---0---2---0---3---0---5-/-3--0|
|----------------------x-----x---|0---0---2---0---3---0---5-/-3--0|
|--------------------------x-----|--------------------------------|
|0---0-3-/-2---0-----------------|
|--0---------------------3-/-2---|
|--------------------------------|
|--------------------------------|
|--------------------------------|
|--------------------------------|
|--------------------0-----------|
|0---------------0---------------|
|--------3-2-0-------------------|
|--------------------------------|
|--------------------------------|
|--------------------------------|

 DCG
 Yodon't believe, that I love you
 DCG
 aneven if that were true,
 DCG
 whjust to keep our little happy home,
 DCG
 I'gonna try to pretend that I do.

.....D C G......
I'm breakin down

Pont
e- D C
ohhh.... One day you said it was just right,
e- D C
I don't see how things changed over night.
e- D C
ohhh.... One day you said it was so strong,
e- D C
and the next day you turned to me and said it's been wrong
 G
 all along.

4.dont take that attitude to the grave

D----------------|
A---3-3----1-1-1-|
F--2--2---2--2-0-|
C-0---0--3---3---|
G--------------3-|
D----------------|


Chorus:

Part A
2x
D----------------------------|
A------3---3--3-3-3-3-3-3-3--|
F-----0----0--0-0h2-2-0-0h2--|
C-------------0-0-0-0-0-0-0--|
G-0-2----3-------------------|
D----------------------------|


Part B
D---------------------------|
A-------3--3--3-3-3-3-3-3-3-|
F------0---0--0-0h2-2-0-0h2-|
C-------------0-0-0-0-0-0-0-|
G--0-2---3------------------|
D-3-------------------------|


Part C
D-------------|
A------3---3--|
F-----0----0--|
C-------------|
G-0-2----3----|
D-------------|


5.waitin on an angel

Intro

e|-------------|-----------------|-------------|-----------------|
B|---1-1---1-1-|---1-1p0---0-0h1-|---1-1---1-1-|---1-1p0---------|
G|---0-0---0-0-|---2-2p0---0-0---|---0-0---0-0-|---2-2p0---------|
D|-------------|-----------------|-------------|-----------------|
A|-3-----2-----|-0---------------|-3-----2-----|-0---------------|
E|-------------|---------3-------|-------------|---------3-------|


Vers:
3x...
e|----------------------------------|----------------------------------|
B|-------1----1-------1----1--------|-------1---1p0-------0---0h1------|
G|-------0----0-------0----0--------|-------2---2---------0---0--------|
D|----------------------------------|----------------------------------|
A|---3------------2-----------------|---0------------------------------|
E|----------------------------------|-----------------3----------------|
e|-----------------|-------------|-----------------|
B|---1-1s3---0-0h1-|---1-1---1-1-|---1-1p0---0-0h1-|
G|---0-0-----0-0---|---0-0---0-0-|---2-2p0---0-0---|
D|-----------------|-------------|-----------------|
A|-----------------|-3-----2-----|-0---------------|
E|-1-------3-------|-------------|---------3-------|


Couplet:

e|-----------------|-----------------|
B|---1-1s3---0-0h1-|---1-1p0---0-0h1-|
G|---0-0-----0-0---|---0-0-----0-0---|
D|-----------------|-----------------|
A|-----------------|-3---------------|
E|-1-------3-------|---------0-------|


Couplet:
4x...
e|-----------------|-----------------|
B|---1-1s3---0-0h1-|---1-1p0---0-0h1-|
G|---0-0-----0-0---|---0-0-----0-0---|
D|-----------------|-----------------|
A|-----------------|-3---------------|
E|-1-------3-------|---------0-------|
e|-----------------|-------------|-----------------|
B|---1-1s3---0-0h1-|---1-1---1-1-|---1-1p0---0-0h1-|
G|---0-0-----0-0---|---0-0---0-0-|---2-2p0---0-0---|
D|-----------------|-------------|-----------------|
A|-----------------|-3-----2-----|-0---------------|
E|-1-------3-------|-------------|---------3-------|


7.forever

Intro
E-----------------------------------------------------------------|
B--0h1---1------0--0----0h1p0------------0h1---1-----3------------|
G--0-----2------0--0---2-----2-----------0-----2----0-------------|
D--2-----3------------2-------2----------2-----3---0--------------|
A-----------------------------------------------------------------|
E------------3------------------------------------3---------------|


Vers
E-----------------------------------------------------------------|
B--0----0h1------------1---------0--0-----------0h1p0-------------|
G--0----0--------------2---------0--0----------2-----2------------|
D--0----2--------------3----------------------2-------2-----------|
A-----------------------------------------------------------------|
E-----------------------------3-----------------------------------|


Chorus
E-----------------------------------------------------------------|
B-------0-1--------3----------0h1p0-------------------------------|
G-------0-0--------0---------2-----2---0--------------------------|
D-------0-2--------0--------2-------2-----------------------------|
A-----------------------------------------------------------------|
E-----------------------------------------------------------------|


Last part of chorus

E-----------------------------------------------------------------|
B-------0-1--------3-----------0--1--1--0-------------------------|
G-------0-0--------0---0-------0--2--2--0--(back-to-verse)--------|
D-------0-2--------0-----------0--2--3--0-------------------------|
A-----------------------------------------------------------------|
E-------------------------3---------------------------------------|


8.like a king

Intro
E-----------------------------------------------------------------|
B--0h1---1------0--0----0h1p0------------0h1---1-----3------------|
G--0-----2------0--0---2-----2-----------0-----2----0-------------|
D--2-----3------------2-------2----------2-----3---0--------------|
A-----------------------------------------------------------------|
E------------3------------------------------------3---------------|


Vers
E-----------------------------------------------------------------|
B--0----0h1------------1---------0--0-----------0h1p0-------------|
G--0----0--------------2---------0--0----------2-----2------------|
D--0----2--------------3----------------------2-------2-----------|
A-----------------------------------------------------------------|
E-----------------------------3-----------------------------------|


Chorus
E-----------------------------------------------------------------|
B-------0-1--------3----------0h1p0-------------------------------|
G-------0-0--------0---------2-----2---0--------------------------|
D-------0-2--------0--------2-------2-----------------------------|
A-----------------------------------------------------------------|
E-----------------------------------------------------------------|


Last part of chorus
E-----------------------------------------------------------------|
B-------0-1--------3-----------0--1--1--0-------------------------|
G-------0-0--------0---0-------0--2--2--0--(back-to-verse)--------|
D-------0-2--------0-----------0--2--3--0-------------------------|
A-----------------------------------------------------------------|
E-------------------------3---------------------------------------|


9.pleasure and pain

Vers:

D----0-2>|4--0------2/0-|------------------|------------|------0-2-|
A--0-----|--------2-----|4-0------5--------|0-----5-----|0----0----|
D--------|--------------|----4------5/0----|--------5/0-|----------|
D--------|--------------|------------------|---0--------|--0-------|
A0-------|--------------|0-----------------|------------|----0-----|
D--------|--------2-----|---------5--------|0-----5-----|----------|
D-4--0-------2/0-|-----------------|----------------|------2/4/2-0-|
A---------2------|-4--0------5-----|----0-----5-----|-0------------|
D----------------|------4------5/0-|----------------|--------------|
D----------------|-----------------|-------0----5/0-|---0----------|
A----------------|-0---------------|----------------|--------------|
D---------2------|-----------5-----|----0-----5-----|--------------|


Chorus:

D------2/4/2-0-|2----2/4--4/2----|------------2/4----|4-----2/4/2-0|
A5-------------|---0-------------|5-------5/0--------|-------------|
D--------------|-----------------|-------------------|-------------|
D--5/0---------|-----------------|---5---------------|-------------|
A--------------|0----------------|-------------------|-------------|
D5-------------|-----------------|5------------------|0------------|
D-------2/4/2--0-|-2-------0--2/4|4--4/2--0--2/0------|------------|
A5---------------|------0--------|----------------4/5-|---5--------|
D----------------|---------------|--------------------|------------|
D--5/0-----------|---------------|--------------------|------------|
A----------------|-0-------------|-----------0--------|------------|
D5---------------|---------------|---0----------------|---0--------|


10.walk away

Vers: G F# E(h)F#
Couplet: C B A G / C B A(h)F#
Bridge: A B G A

11.how many miles must we march

Intro:
|----------------------------------------||
|----------------------------------------||
|--2--4--5---2----2--4--5--7--4--5--2----||
|--0--0--0---0----0--0--0--0--0--0--0----||
|----------------------------------------||
|--2--3--5---2----2--3--5--7--3--5--2----||


Vers:
|-----------------------------------------------------------------||
|-----------------------------------------------------------------||
|----5---4----2--2--4----5--4----2--2--4-----5---4---2--4--4-2p0--||
|----0---0----0--0--0----0--0----0--0--0-----0---0---0--0--0---0--||
|-----------------------------------------------------------------||
|--5---3---2-----2--3--5---3--2-----2--3--5----3---2----3--3---0--||


Chorus:
|-------------------------||
|-------------------------||
|--0--2--2--4---4-2-0-----||
|--2--0--0--0---0---------||
|-------------------------||
|--0--2--2--3---3---------||


12. welcome to the cruel world

Intro:
e|-------------------------------------------------------------------------|
B|---------3--3----------3--3----------3--3---------3--3------------3--3---|
G|---------0--0----------0--0----------0--0---------0--0------------0--0---|
D|-------------------------------------------------------------------------|
A|-------------------------------------------------------------------------|
E|-3--3---------3--3---------2--2----------0--0---------0h2-2--------------|
e|-------------------------------------------------------------------------|
B|---------3--3----------3--3----------3--3---------3--3-------------------|
G|---------0--0----------0--0----------0--0---------0--0-------------------|
D|-------------------------------------------------------------------------|
A|-------------------------------------------------------------------------|
E|-3--3---------3--3---------2--2----------0--0-----------0h2--------------|


Riff A:
e|-------------------------------------------------------------------------|
B|---------3--3----------3--3----------3--3---------3--3------------3--3---|
G|---------0--0----------0--0----------0--0---------0--0------------0--0---|
D|-------------------------------------------------------------------------|
A|-------------------------------------------------------------------------|
E|-3--3---------3--3---------2--2----------0--0---------0h2-2--------------|


Riff B:2x (*3x)
e|-------------------------------------------------------------------------|
B|---------3--3----------3--3----------3--3---------3--3-------------------|
G|---------0--0----------0--0----------0--0---------0--0-------------------|
D|-------------------------------------------------------------------------|
A|--3--3----------2--2----------0--0---------------------------------------|
E|--------------------------------------------3--3-------------------------|
e|-------------------------------------------------------------------------|
B|---------3--3----------3--3----------3--3---------3--3-------------------|
G|---------0--0----------0--0----------0--0---------0--0-------------------|
D|-------------------------------------------------------------------------|
A|--3--3----------2--2----------0--0---------0h2-2-------------------------|
E|-------------------------------------------------------------------------|


Riff C:

e|-------------------------------------------------------------------------|
B|---------2--2----------0--0--------------3--3--------3--3----------------|
G|---------1--1----------0--0--------------0--0--------2--2----------------|
D|-------------------------------------------------------------------------|
A|--0--0-------------------------------------------------------------------|
E|----------------0--0-------------3--3-----------2--2---------------------|
e|-------------------------------------------------------------------------|
B|---------2--2----------0--0--------------3--3--------3-------------------|
G|---------1--1----------0--0--------------2--2--------2-------------------|
D|-------------------------------------------------------------------------|
A|--0--0-------------------------------------------------------------------|
E|----------------0--0-------------2--2-----------2--2---------------------|


and dats it!!i havent been able to tab out da 6th and da 13th song though,
but as soon as i do, i´ll put dem wit da rest!!any kestions, mail me!!
peace out!!

| / slide up
| \ slide down
| h hammer-on
| p pull-off
| ~ vibrato
| + harmonic
| x Mute note
===============================================================================

END

+--------------------------------------------------------------------------+

| This file is the author's own work and represents their interpretation |
| of the song. You may only use this file for private study, scholarship, |
| or research. |
+--------------------------------------------------------------------------+


Ultimate-Guitar.Com © 2005


C D G
variations - click chord images
Transpose chords:
Tuning:
Cool service:
View: Size:
A  A  A
Rating:
Layout:
  • Currently 0/5 Stars.
  • 1
  • 2
  • 3
  • 4
  • 5
 
Accuracy:
  • Currently 0/5 Stars.
  • 1
  • 2
  • 3
  • 4
  • 5
 
click stars to rate
Chordie recommends:
Get acoustic guitar lessons and electric guitar lessons at JamPlay.com
Songbook:
Login to add this song to your songbook
Support the artist
Preview/buy this song
MSN Music
Why this non-profit ad?

 
login to add comments/video/corrections