""; ?> Upside Down by Jack Johnson - guitar chords, guitar tabs and lyrics - chordie

Upside Down

Jack Johnson

 EF#mABG#m
e -0---2---5--7---4-|
B -0---2---5--7---4-|
G -1---2---6--8---4-|
D -2---4---7--9---6-|
A -2---4---7--9---6-|
E -0---2---5--7---4-|


Intro:
 E-E-F#m-F#m
 played over the single notes:
e------------------------------------------------|
H------------------------------------------------|
G---------4---------4---4h6----------------------|
D----4/6-------4/6------------4---4h6-4h6-4---2--|
A------------------------------------------------|
E------------------------------------------------|
e------------------------------------------------|
H------------------------------------------------|
G---------4---------4---4h6----------------------|
D----4/6-------4/6------------4---4h6-4h6-4---2--|
A------------------------------------------------|
E------------------------------------------------|


 E
 Who's to say what's impossible
 F#m
 Have they forgot

This world keeps spinning
 E
 And with each new day
 F#m
I can feel a change in everything
 E
And as the surface break reflections fade
 F#m
But in some ways they remain the same
 E
And as my mind begins to spread its wings
 F#m
There's no stopping curiosity

I wanna turn the whole thing

Chorus:

 EF#m
 Upside down
 ABEF#m
 I'll find the things they say just can't be found
 ABEF#m
 I'll share this love I find with everyone
 ABEF#m
 We'll sing and dance to Mother Nature's song 
 ABE
 I don't want this feeling to go away....

[ Over the single notes it goes:
E F#m ]
e------------------------------------------------|
H------------------------------------------------|
G---------4---------4---4h6----------------------|
D----4/6-------4/6------------4---4h6-4h6-4---2--|
A------------------------------------------------|
E------------------------------------------------|

[ Over the single notes it goes:
E F#m ]
e---------------------------------------------|
H---------------------------------------------|
G---------4-------4---4h6---------------------|
D----4/6-----4/6-------------4-------2-2h4-2--|
A---------------------------------4-----------|
E---------------------------------------------|


 EF#m
 Who's to say I can't do everything but I can try
 E
And as I roll along I begin to find
 F#m
Things aren't always just what they seem
 E
I wanna turn the whole thing

 EF#m
 Upside down
 AB
 I'll find the things they say
 EF#m
 Just can't be found
 ABEF#m
 I'll share this love I find with everyone  
 ABEF#m
 We'll sing and dance to Mother Nature's song 
 AB
 This world keeps spinning and there's...

 G#mF#m
 ...no time to waste
 G#mA
Well it all keeps spinning, spinning
 B
 round and round

 EF#m
 Upside down
 ABEF#m
 Who's to say what's impossible and can't be found 
 ABE
 I don't want this feeling to go away

  very close! 
e------------0---------------2-----------------|
H------------0---------------2-----------------|
G---------4--1------4---4h6--2-----------------|
D----4/6-----2-4/6-----------44----------------|
A------------2---------------4-----------------|
E------------0---------------2-----------------|


 F#mE
      Please don't go away

  very close! 
e------------0---------------2-----------------|
H------------0---------------2-----------------|
G---------4--1------4---4h6--2-----------------|
D----4/6-----2-4/6-----------44----------------|
A------------2---------------4-----------------|
E------------0---------------2-----------------|


 F#mE
      Please don't go away

  simultaneously 
e------------0----------------2---------------|
H------------0-----5--5h7-----2---------------|
G---------4--1-4/6---------4h62---------------|
D----4/6-----2----------------4---------------|
A------------2----------------4---------------|
E------------0----------------2---------------|


 F#mE
      Please don't go away

  Some fiddling at tbe G and B String till tbe end... 
Is this how it's supposed to be....

Is this how it's supposed to be......

END

+--------------------------------------------------------------------------+

| This file is the author's own work and represents their interpretation |
| of the song. You may only use this file for private study, scholarship, |
| or research. |
+--------------------------------------------------------------------------+


Ultimate-Guitar.Com © 2005


Corrected by Lasse King. View original
A B E F#m G#m
variations - click chord images
Transpose chords:
Tuning:
Cool service:
View: Size:
A  A  A
Rating:
Layout:
  • Currently 4.3/5 Stars.
  • 1
  • 2
  • 3
  • 4
  • 5
 
Accuracy:
  • Currently 4.5/5 Stars.
  • 1
  • 2
  • 3
  • 4
  • 5
 
click stars to rate
Chordie recommends:
Get acoustic guitar lessons and electric guitar lessons at JamPlay.com
Songbook:
Login to add this song to your songbook
Support the artist
Preview/buy this song
MSN Music
Why this non-profit ad?

 
login to add comments/video/corrections