Its Sad To Belong

Dan England

 F#m7442222
 Bm7     x24232
Em7 220030

Intro: C6-G9/B-G9/A-A7-A7sus4; pause

 C6G9/BG9/A
e||---------------5--|---------------5-|---------------5--|
B||-----------5------|-----------3-----|-----------3------|
G||-------5----------|-------4---------|-------4----------|
D||------------------|-----------------|------------------|
A||--3---------------|--2--------------|--0---------------|
D||------------------|-----------------|------------------|


A7 A7sus4 pause
e||------------------|-----------------|------------------|
B||--3---------------|--2--------------|--3---------------|
G||-------4----------|-----------------|------------------|
D||------------------|-----------------|------------------|
A||------------------|--0--------------|------------------|
D||------------------|-----------------|------------------|


 DDM7
 Met you on a springtime day
 GM7G6
 You were mindin' your life
 DM7A7sus4
And I was mindin' mine, too.

 DDM7
 Lady, when you looked my way
 GM7G6
 I had a strange sensation
 DM7D7
And, darlin' that's when I knew...

 GM7F#m7Bm7
That it's sad to belong to someone else
 Em7A7sus4D-D7
When the right one comes   along;
 GM7F#m7Bm7
Yes, it's sad to belong to someone else
 Em7A7sus4D--
When the right one comes   along.

 DDM7
 Oh, I wake up in the night,
 GM7G6
 And I reached beside me
 DM7A7sus4
Hopin' you will be there.

 DDM7
 But instead I find someone
 GM7G6
 Who believed in me when I said,
 DM7D7
"I'd always care."

 GM7F#m7Bm7
Oh, it's sad to belong to someone else
 Em7A7sus4D-D7
When the right one comes   along;
 GM7F#m7Bm7
Yes, it's sad to belong to someone else
 Em7A7sus4D--
When the right one comes   along.

 GM7F#m7Bm7
So I live my life in a dream world
 Em7A7sus4D-D7
For the rest of my     days;
 GM7F#m7Bm7
Just you and me walkin' hand in hand
 Em7A7sus4
In a wishful memory.
 C6
Oh, I guess that's all
G9/B G9/A-A7,A7sus4,
That it would ever be.

 DDM7
 I wish I had a time machine
 GM7G6
I could make myself go back
 DM7A7sus4
Until the day I was born;
 DDM7
 And I would live my life again,
 GM7G6
 And rearrange it so that I'll be
 DM7D-D7
 Yours from now on.

 GM7F#m7Bm7
Oh, it's sad to belong to someone else
 Em7A7sus4D-D7
When the right one comes   along;
 GM7F#m7Bm7
Yes, it's sad to belong to someone else
 Em7A7sus4D-D7
When the right one comes   along.

(Repeat last verse while fading)

END

+--------------------------------------------------------------------------+

| This file is the author's own work and represents their interpretation |
| of the song. You may only use this file for private study, scholarship, |
| or research. |
+--------------------------------------------------------------------------+


Ultimate-Guitar.Com © 2005


A7sus4 Bm7 C6 D D7 Dm7 Em7 F#m7 G6 Gm7
variations - click chord images
Transpose chords:
Tuning:
Cool service:
View: Size:
A  A  A
Rating:
Layout:
  • Currently 1/5 Stars.
  • 1
  • 2
  • 3
  • 4
  • 5
 
Accuracy:
  • Currently 0/5 Stars.
  • 1
  • 2
  • 3
  • 4
  • 5
 
click stars to rate
Chordie recommends:
Get acoustic guitar lessons and electric guitar lessons at JamPlay.com
Songbook:
Login to add this song to your songbook
Support the artist
Preview/buy this song
MSN Music
Why this non-profit ad?

 
login to add comments/video/corrections