This Place Is Empty

Rolling Stones

-------------------------------------------------------------------------------

-------------------------------------------------------------------------------

 AmE7G6CFE
E|-0----0----0----0----1----0
B|-1----0----3----1----1----0
G|-2----1----0----0----2----1
D|-2----0----0----2----3----2
A|-0----2----2----3----0----2
E|-0----0----3----0----0----0


 INTRO
  (0:00 – 0:09)
 G6G6Am
E|-------3-0-0--0--------0-3-0-----0--0-
B|-----1-----3--1------1-------1---3--1-
G|---2-------0--0----2-----------2-0--2-
D|-3---------0--2--3---------------0--2-
A|-----------2--3------------------2--0-
E|-----------3--0------------------3--0-


 VERSE 1
  (0:09 – 0:30)
**CHORDS ARE A MIX OF FINGERPICKING AND STRUMMING**
 AmE7
 Walk right in, sit on down
 FG6C
And make yourself at home
 AmE7
 Come on baby, you're just like me
 FG6C
And you hate to be alone

 CBORUS 1
  (0:30 – 0:50)
 AmEmAm
 It's funny how things go around
 AmFC
 It's crazy, but it's true
 AmEm
 This place is empty, oh so empty
 FG6C
 It's empty without you

 VERSE 2
  (0:50 – 1:12)
SAME STRUCTURE AS VERSE 1

 CBORUS 2
  (1:12 – 1:44)
 AmEmAm
It's funny how things go around
 AmFC
 But go around they do
 AmEm
 This place is empty, empty
 FG6C
 So empty without you
 AmEm
 This place is empty, empty
 FG6C
 So empty without you

 BRIDGE
  (1:44 – 2:04)

** PLAY THE BRIDGE STRUCTURE TWICE

E Am (palm mute Am) E Am
... oh yeah ... ... mmm ...

PLAY THIS RIFF WHILE HE SINGS “THIS PLACE IS EMPTY WITHOUT YOU”:

E|-------0--------
B|-1-1-3---3-1-3-1
G|----------------
D|----------------
A|----------------
E|----------------


 VERSE 3
  (2:04 – 2:25)
SAME STRUCTURE AS VERSES 1 AND 2

 CBORUS 3
  (2:25 – 2:56)
 AmEmAm
 It's funny how things turn around
 AmFC
 It's crazy, but it's true
 AmEm
 This place is empty, so empty
 FG6C
 So empty without you
 AmEm
 This place is empty, oh so empty
 FG6C
 So empty without you

 ENDING
  (2:56 – 3:16)
 G6CC
E|-------0-3-0-0--0--------0-3-0-----0-1-0
B|-----1-------3--1------1-------3-3-----1
G|---2---------0—-0----2-----------------0
D|-3-----------0--2--3-------------------2
A|-------------2--3----------------------3
E|-------------3--0----------------------0

** STRUM ENDING CHORD SLOWLY**

| / slide up
| \ slide down
| h hammer-on
| p pull-off
| ~ vibrato
| + harmonic
| x Mute note
===============================================================================

END

+--------------------------------------------------------------------------+

| This file is the author's own work and represents their interpretation |
| of the song. You may only use this file for private study, scholarship, |

| or research. |
+--------------------------------------------------------------------------+


Ultimate-Guitar.Com © 2005


Am C E E7 Em F G6
variations - click chord images
Transpose chords:
Tuning:
Cool service:
View: Size:
A  A  A
Rating:
Layout:
  • Currently 0/5 Stars.
  • 1
  • 2
  • 3
  • 4
  • 5
 
Accuracy:
  • Currently 0/5 Stars.
  • 1
  • 2
  • 3
  • 4
  • 5
 
click stars to rate
Chordie recommends:
Check out JamPlay.com for online video guitar lessons
Songbook:
Login to add this song to your songbook
Support the artist
Preview/buy this song
MSN Music
Why this non-profit ad?

 
login to add comments/video/corrections