Chordie logo


Call Me Papa  Donavon Frankenreiter



----------------------------------------------------------------------------

----------------------------------------------------------------------------
| / slide up e|-0-----0--1--1-----2--1-|
| \ slide down B|-1--1--1--1--1--3--3--0-|
| h hammer-on G|-0--0--2--2--1--1--2--0-|
| p pull-off D|-2--2--2--3--3--2--0--0-|
| ~ vibrato A|-3--2--0--3--3--2-----2-|
| + harmonic E|----------1--1--------3-|
[Am]Another sleepless night; another sleepless town
[F]But I got you, yeah [Fm]I got you
C Ex
Whenever I think about what I though

[Am]Seems to get lost watching all the rain drop

[F]'Cause I got you, yeah [Fm]I got you
Chorus:
[C]You can call me papa

[E7]And I'll call you baby

[Am]Don't forget your mama's my  [D]
Baby too

[F]Wherever you go; [Fm]Whatever you do

[C]I will be there; [G]Be there for you
Solo:


e|0h1p0--0h1p0--0h1p0--0h1p0--0-1-1/3-1-0---0-------------------------------|
B|-----3------3------3------3-------------3---3-1~---1-3-4b(5)~--(5)r4------|
G|--------------------------------------------------------------------------|
D|--------------------------------------------------------------------------|
A|--------------------------------------------------------------------------|
E|--------------------------------------------------------------------------|
e|--------------------------------------------------------------------------|
B|1-3p1---1-------1------3------5------6~-----------------------------------|
G|------2----------------------------------9-10p9-7-9-10/12~--9-10p9-7-7/9--|
D|------------1/2----2/3----3/5----5/7--------------------------------------|
A|--------------------------------------------------------------------------|
E|--------------------------------------------------------------------------|
e|--------------------------------------------------------------------------|
B|----------------------------------5-6/8-8-8/10-10-10/13~----13-(16)r15-13-|
G|7-7p5---5-7b(8)r7~--7\-5~-----5-7-------------------------14--------------|
D|------7---------------------7---------------------------------------------|
A|--------------------------------------------------------------------------|
E|--------------------------------------------------------------------------|
e|------------------15b(17)~(17)r15---15-12---------------------------------|
B|--13-13~-----13-----------(15)------------15b-15-13--13-------------------|
G|14---------14--14----------------------------------14--14-12-14\12-9-9\7--|
D|--------------------------------------------------------------------------|
A|--------------------------------------------------------------------------|
E|--------------------------------------------------------------------------|
e|------------------------------------------15------------------------------|
B|---------------13-13~-----13-15-13-15b(16)--(16)r15-13-15~--13-15p13--13~-|
G|5---5-7/9-12/14--------14-------------------------------------------14----|
D|--7-----------------------------------------------------------------------|
A|--------------------------------------------------------------------------|
E|--------------------------------------------------------------------------|
e|0h1p0---------------------------------------------------------------------|
B|------3-1-3---1-3-5-6-5\3-3-3b(5)~r3-1-3~---------------------------------|
G|------------2-------------------------------------------------------------|
D|--------------------------------------------------------------------------|
A|--------------------------------------------------------------------------|
E|--------------------------------------------------------------------------|


Outro:
[F]I will be there; [Fm]I will be there

Be the for [C]you

Compilation:
Intro
Verse
Chorus
Verse
Chorus
Solo
Chorus
Outro

enjoy!
THE END
============================================================================

END

+--------------------------------------------------------------------------+

| This file is the author's own work and represents their interpretation |
| of the song. You may only use this file for private study, scholarship, |
| or research. |
+--------------------------------------------------------------------------+


Ultimate-Guitar.Com © 2005

Important: The song above is NOT stored on the Chordie server. The original song is hosted at www.ultimate-guitar.com. Chordie works as a search engine and provides on-the-fly formatting. Chordie does not index songs against artists/composers will. To remove this song please click here.

Text color:
Chord color:
Chord grids: 
Font size:    
Page size: 

Am C D E7 F Fm G
variations - click chord images

Login - add to songbook

Transpose chords

Tuning

Rating click stars to rate

Layout
Accuracy

SHARE PAGE  




You need to log in to post comments