True Blue

Bright Eyes

---------------------------------------------------------|

---------------------------------------------------------|
-----0----------0------2---------------------------------|
----2-----2---0------3-----3—-3h5--3-2-------------------|
--3----3-----------3-----3-------------------------------|
----------3----------------------------------------------|

 CG
I am a blueblood I will admit that.
 FC
I dance in blue shoes and wear a blue hat.
 G
Live in a blue house on a blue street,
 FC
in a blue town by a blue creek.
 G
I write my blue songs with m blue pen.
 FC
I sing the blue notes to my blue friends.
 G
Now I don't know that much about you
 FCC-C
but I like you because you are true blue.

---------------------------------------------------------|
---------------------------------------------------------|
-----0----------0------2---------------------------------|
----2-----2---0------3-----3-—3h5--3-2-------------------|
--3----3-----------3-----3-------------------------------|
----------3----------------------------------------------|


 CG
I had a blue dream about a blue star.
 FC
In it I drove there in my blue car.
 G
And when I got there, I met a blue dog
 FC
with a blue tongue, we had some real fun.
 CG
We bounced a blue ball. It broke a blue glass.
 FC
We banged on blue drums and called it bluegrass.
 G
Guess the thing I'm trying to tell you,

 FCC-C
is that it's best kid if you're true blue.

---------------------------------------------------------|
---------------------------------------------------------|
-----0----------0------2---------------------------------|
----2-----2---0------3-----3-—3h5--3-2-------------------|
--3----3-----------3-----3-------------------------------|
----------3----------------------------------------------|


 CG
Once I had gangrene, I got it real bad.
 FC
And so the Doc came with his black bag.
 G
I said "You know doc, I don't feel swell.
 FC
If you had a blue bag I think I'd feel well."
 CG
So he came right back with a blue sack.
 CG
He said, "Will this do?" I said, "Why not? Yeah."
 FC
That's how I am here today to tell you,
 GC-C
that it's best man to be true blue.                  

---------------------------------------------------------|
---------------------------------------------------------|
-----0----------0------2---------------------------------|
----2-----2---0------3-----3-—3h5--3-2-------------------|
--3----3-----------3-----3-------------------------------|
----------3----------------------------------------------|


 CG
Out on the blue sea I sailed a blue ship.
 FC
I had a first mate, always had blue lips.
 G
His name was Bluebeard.  
 FC
He had a weird twitch.   
 CG
We flew a blue flag on a big stick.
 FC
And we ate bluegill and we ate blue chips.
 CG
Oh, I felt real blue eating that blue fish.
 FC
Because there ain't much that I won't do,

 GC-C
unless it keeps me from being true blue.

---------------------------------------------------------|
---------------------------------------------------------|
-----0----------0------2---------------------------------|
----2-----2---0------3-----3-—3h5--3-2-------------------|
--3----3-----------3-----3-------------------------------|
----------3----------------------------------------------|


 CG
Once in a blue moon there's a blue sky.
 FC
I wear my blue jeans and fly my blue kite.
 G
Hangs like a bluebird until the wind dies
 FC
and then the tears pour out of my blue eyes.
 CG
If it's your birthday, we'll bake a blue cake
 FC
and then we'll eat it off these blue plates.                  
 G
‘cause kid I don't know much about you,
 FC-C
but I like you because you're true blue.                     
 G
Yeah, I don't know much about you,
 FC-C
but I like you ‘cause you're true blue.                                  

THANKS please rate …… 

END

+--------------------------------------------------------------------------+

| This file is the author's own work and represents their interpretation |
| of the song. You may only use this file for private study, scholarship, |
| or research. |
+--------------------------------------------------------------------------+


Ultimate-Guitar.Com © 2005


C F G
variations - click chord images
Transpose chords:
Tuning:
Cool service:
View: Size:
A  A  A
Rating:
Layout:
  • Currently 0/5 Stars.
  • 1
  • 2
  • 3
  • 4
  • 5
 
Accuracy:
  • Currently 0/5 Stars.
  • 1
  • 2
  • 3
  • 4
  • 5
 
click stars to rate
Chordie recommends:
Learn to play this song & others via video guitar lessons at JamPlay.com
Songbook:
Login to add this song to your songbook
Support the artist
Preview/buy this song
MSN Music
Why this non-profit ad?

 
login to add comments/video/corrections