Chordie logo

   Various Artists


Placebo - 20 years
Credit for this goes to ‘littlebeard’ I just raised it up...

Capo 2
|-----------------|-----------------|---------------|---------------|
|--------------0--|--------------0--|---------------|------------0--|
|----------0------|----------0------|--------0------|--------0------|
|-----11----------|-----11----------|----9-------9--|----9----------|
|---9----9---7----|---9----9---7----|--7---7---7----|--7---7---7----|
|-----------------|-----------------|---------------|---------------|



|---------------|---------------|------------------|
|---------------|------------0--|------------------|
|--------0---0--|--------0------|------0----0------|
|----7----------|----7----------|--------6----6----|
|--5---5---5----|--5---5---5----|--5-4-----4----4--|
|---------------|---------------|------------------|



|-------------------|
|-------------------|
|--0-----0-----0----|
|----6-----6-----6--|
|------4-----4------|
|-------------------|

pretty sure that's the right way to do it without tuning differently...


Important: The song above is NOT stored on the Chordie server. The original song is hosted at www.ultimate-guitar.com. Chordie works as a search engine and provides on-the-fly formatting. Chordie does not index songs against artists/composers will. To remove this song please click here.

This song is displayed as text-only. Transposing and tuning is only available for chordpro-songs.

Login - add to songbook

Rating click stars to rate

Layout
Accuracy

SHARE PAGE  

You need to log in to post comments