Chordie logo


Wrong Turn   Jack Johnson



| Ultimate Guitar Tabs Archive - your #1 source for tabs!               |
| http://www.ultimate-guitar.com/                                       |
|                                                                       |
| Over 200,000 guitar, guitar pro and bass tabs! Also lessons, news,    |
| columns and guitar forums!                                            |


Artist: Jack Johnson
Song: Wrong Turn


----------------------------------------------------------------------------
			     WRONG TURN – Jack Johnson
----------------------------------------------------------------------------
Tabbed by: Thomas Poupouare
Email: hbc_skater@msn.com

Sounds good when all 3 parts are played together. Bass sounds fine on a normal guitar. 
fun
LSH!

Rhythm Guitar

Intro/Verse/Chorus

---------0-----------------0-------------|
---1-------1--------1--------1-----------|
-----0-------0--------0--------0---------|
-------2-------2--------2--------2-------|
-3-----------------3---------------------|
-----------------------------------------|

---------1------------------3------------|
---1-------1----------0-------0----------|
-----2-------2----------0-------0--------|
-------3-------3----------0-------0------|
-----------------------------------------|
-1------------------3--------------------|

Bridge

-----------------------------------------|
---1----1----1---1----1----1-------------|
-----2----2--------2----2----------------|
-------3----3--------3----3--------------|
-----------------------------------------|
-1-------------1-------------------------|

-----------------------------------------|
--0-----0----0---0----0----0-------------|
----0-----0--------0----0----------------|
------0-----0--------0----0--------------|
-----------------------------------------|
-3--------------3------------------------|

Bass Guitar

Intro/Verse/Chorus

-----------------------------------------|
-----------------------------------------|
-----------------------------------------|
---2-2-2s3-2-0-------------0-------------|
-3---------------0-------2---------------|
---------------1---1-1s3-----------------|


Bridge

-----------------------------------------|
-----------------------------------------|
-----------------------------------------|
-------------------0-----0---------------|
---0-3---0-3-----2-----2-----------------|
-1-----1-------3-----3-------------------|

Lead Guitar

-0h3-5-0-----------------0h3-3--3--------|
---------3-1-3-1-------------------------|
-----------------2—0h2-5-----------------|
-----------------------------------------|
-----------------------------------------|
-----------------------------------------|

-0h3-5-0---------------------------------|
---------3-1-3-1--------3--1-------------|
-----------------2—---4------------------|
--------------------5--------------------|
-----------------------------------------|
-----------------------------------------|

Enjoi

END

+--------------------------------------------------------------------------+
| This file is the author's own work and represents their interpretation   |
| of the song. You may only use this file for private study, scholarship,  |
| or research.                                                             |
+--------------------------------------------------------------------------+



Important: The song above is NOT stored on the Chordie server. The original song is hosted at www.ultimate-guitar.com. Chordie works as a search engine and provides on-the-fly formatting. Chordie does not index songs against artists/composers will. To remove this song please click here.

This song is displayed as text-only. Transposing and tuning is only available for chordpro-songs.

Login - add to songbook

Rating click stars to rate

Layout
Accuracy

SHARE PAGE  




You need to log in to post comments