Tomorrow Is A Long Time

Nickel Creek

-------------------------------------------------------------------------------

-------------------------------------------------------------------------------
------
------
e|| --------------------------------- ||-------------------
B|| -------0---------1==-------3====- ||--------0----------
G||.-2h4-------0-----------0---------.||--2h4-------0------
D||.-----0-------0==-----2-------2==-.||------0-------0==--
A|| -----------------3==-----3------- ||-------------------
E|| -3==-----3----------------------- ||--3==-----3--------
------
------

 CGCG
e|-----------------|---------------------------------|---------------------------------|
B|-1==-------3====-|-------0---------1==-------3====-|---------------------------------|
G|-------0---------|-2h4-------0-----------0---------|-2h4-------2-----2h4-------4====-|
D|-----2-------2---|-----0-------0==-----2-------2==-|-------0-------0-------0---------|
A|-3==-----3-------|-----------------3==-----3-------|-----2-------2-------2-------2==-|
E|-----------------|-3==-----3-----------------------|-3==-----3-------3==-----3-------|


If to- -day was not an endless highway
If to- -night was not a crooked trail

 CDG
e|----------------------------------|---------------------------------|
B|-1==-------3====------------------|---------------------------------|
G|-------0----------2==-------2====-|-2h4-------2-----2h4-------4-----|
D|-----2-------2==--------4---------|-------0-------0-------0---------|
A|-3==-----3--------5==-----5-------|-----2-------2-------2-------2==-|
E|----------------------5-------5==-|-3==-----3-------3==-----3-------|

If tomorrow wasn't such a long time

 CCDG
e|-----------------|----------------------------------|---------------------------------|
B|-1==-------1====-|-1==-------1====------------------|---------------------------------|
G|-------0---------|-------0----------2==-------2====-|-0==-------2-----2h4-------4-----|
D|-----2-------2==-|-----2-------2==--------4---------|-------0-------0-------0---------|
A|-3==-----3-------|-3==-----3--------5==-----5-------|-----2-------2-------2-------2==-|
E|-----------------|----------------------5-------5==-|-3==-----3-------3==-----3-------|  


Then lonesome would mean nothing to me at all

-------

CHORUS:
-------


C D G (x3)
e|| ----------------------------------|--------------------------------- ||
B|| -1==-------3====------------------|--------------------------------- ||
G||.-------0----------2==-------2====-|-2h4-------2-----2h4-------4-----.||
D||.-----2-------2==--------4---------|-------0-------0-------0---------.||
A|| -3==-----3--------5==-----5-------|-----2-------2-------2-------2==- ||
E|| ----------------------5-------5==-|-3==-----3-------3==-----3------- || 

Yes, only if my own true love was waiting
If I could hear his heart softly pounding
And on - ly if he was lying by me

 CCD
e|---------------------------------|----------------------------------|
B|-1==-------3====-1==-------3====-|----------------------------------|
G|-------0---------------0---------|-2==-------2====--2==-------2====-|
D|-----2-------2==-----2-------2==-|-------4----------------4---------|
A|-3==-----3-------3==-----3-------|-5==-----5--------5==-----5-------|
E|---------------------------------|-----5-------5==------5-------5==-|


Would I lie in my bed once

G C (x3) G
   e|| --------------------------------- ||-------------------
   B|| -------0---------1==-------3====- ||--------0----------
   G||.-2h4-------0-----------0---------.||--2h4-------0------
   D||.-----0-------0==-----2-------2==-.||------0-------0==--
   A|| -----------------3==-----3------- ||-------------------
   E|| -3==-----3----------------------- ||--3==-----3--------

again

(Then into the next verse.)

End on G.

INTRO:
G C (x4)

VERSE 1:

 GCGC
 If today was not an endless highway   
 GCG
 If tonight was not a crooked trail
 CDGC
If tomorrow wasn't such a long time   
 CDG
Then lonesome would mean nothing me at all

CHORUS:
 CDG
Yes, and only if my own true love was waitin'
 CDG
And if I could hear his heart softly poundin'
 CDG
Yes and only if  he was lyin' by me
 CDGCGCGCGC
Would I lie in my bed once again           

VERSE 2:

I can't see my reflection in the water
I can't speak the sounds that show no pain
I can't hear the echo of my footsteps
Or can't remember the sound of my own name

CHORUS

(solos)

VERSE 3:

There's beauty in that silver, singing river

There's beauty in that sunrise in the sky
But none of these and nothing else can touch the beauty
That I remember in my true love's eyes

CHORUS

-------------

Notation Key:
-------------

| h hammer-on
| = let note ring

===============================================================================

END

+--------------------------------------------------------------------------+

| This file is the author's own work and represents their interpretation |
| of the song. You may only use this file for private study, scholarship, |
| or research. |
+--------------------------------------------------------------------------+


Ultimate-Guitar.Com © 2005


C D G
variations - click chord images
Transpose chords:
Tuning:
Cool service:
View: Size:
A  A  A
Rating:
Layout:
  • Currently 0/5 Stars.
  • 1
  • 2
  • 3
  • 4
  • 5
 
Accuracy:
  • Currently 2/5 Stars.
  • 1
  • 2
  • 3
  • 4
  • 5
 
click stars to rate
Chordie recommends:
Learn how to play guitar at JamPlay.com
Songbook:
Login to add this song to your songbook
Support the artist
Preview/buy this song
MSN Music
Why this non-profit ad?

 
login to add comments/video/corrections