Chordie logo


Lonely As You   Foo Fighters


Artist: Foo Fighters
Song: Lonely As You
Album: One By One
Tabbed By: sampeckham2301
Tuning: Dropped 2 steps (DGCF)

There is just clean guitar, no bass, in the intro.

Verse (“Wake up, you’re dreaming...”):
F:---------------------------------------------------------------------|
C:---------------------------------------------------------------------|
G:-----------------3-3-3-3-3-3-3-3-------------------------------------|
D:-4-4-4-4-4-4-4-4-----------------2-2-2-2-2-2-2-2-1-1-1-1-1-1-1-1-0-0-|

F:---------------------------------------------------------------------|
C:---------------------------------------------------------------------|
G:---------------------------------------------------------------------|
D:-0-0-0-2-2-2-4-4-4-4-4-4-4-4-6-6-6-6-6-6-6-6-5-5-5-5-5-5-5-5-4-4-4-4-|

F:---------------------------------------------------------------------|
C:---------------------------------------------------------------------|
G:---------3-3-3-3-3-3-3-3---------------------------------------------|
D:-4-4-4-4-----------------2-2-2-2-2-2-2-2-1-1-1-1-1-1-1-1-0-0-0-0-0-2-|

F:---------------------------------------------------------------------|
C:---------------------------------------------------------------------|
G:---------------------4-4-4-4-4-4-4-4-4-4-4-4-4-4-4-4-----------------|
D:-2-2-4-4-4-4-4-4-4-4---------------------------------4-4-4-4-4-4-4-4-|

F:---------------------------------------------------------------------|
C:---------------------------------------------------------------------|
G:-3-3-3-3-3-3-3-3-----------------------------------------------------|
D:-----------------2-2-2-2-2-2-2-2-1-1-1-1-1-1-1-1-0-0-0-0-0-2-2-2-4-4-|

F:---------------------------------------------|
C:---------------------------------------------|
G:---------------------------------------------|
D:-4-4-4-4-4-4-6-6-6-6-6-6-6-6-5-5-5-5-5-5-5-5-|
                                                      PALM MUTED GUITAR
                                                       STOPS HERE |
Pre-chorus (“Every now and then...”)                              |
                                                                  |
F:---------------------------------------------------------------------|
C:---------------------------------------------------------------------|
G:-----------------3-3-3-3-3-3-3-3-------------------------------------|
D:-4-4-4-4-4-4-4-4-----------------2-2-2-2-2-2-2-2-1-1-1-1-1-1-1-1-0-0-|

F:---------------------------------------------------------------------|
C:---------------------------------------------------------------------|
G:---------------------------------------------------------------------|
D:-0-0-0-2-2-2-4-4-4-4-4-4-4-4-0-0-0-0-0-2-2-2-4-4-4-4-4-4-4-4-0-0-0-0-|

F:---------------------------------------------------------------------|
C:---------------------------------------------------------------------|
G:-------------------------4-4-4-4-4-4-4-4-2-2-2-2-2-2-2-2-1-1-1-1-1-1-|
D:-0-2-2-2-4-4-4-4-4-4-4-4---------------------------------------------|

F:---------------------|
C:---------------------|
G:-1-1-0-0-0-0-0-0-0-0-|
D:---------------------|


Chorus (“One more time...”)

F:----------------------------------------------------------------|
C:----------------------------------------------------------------|
G:---------------------------------------2-2-2-------4-4-4--------|
D:-4-4-4-3-3-3-2-2-2-1-1-1-0-------0-0-0-------2-2-2-------3------|  (x4)


Verse 2:

F:---------------------------------------------------------------------|
C:---------------------------------------------------------------------|
G:-----------------3-3-3-3-3-3-3-3-------------------------------------|
D:-4-4-4-4-4-4-4-4-----------------2-2-2-2-2-2-2-2-1-1-1-1-1-1-1-1-0-0-|

F:---------------------------------------------------------------------|
C:---------------------------------------------------------------------|
G:---------------------------------------------------------------------|
D:-0-0-0-2-2-2-4-4-4-4-4-4-4-4-6-6-6-6-6-6-6-6-5-5-5-5-5-5-5-5-4-4-4-4-|

F:---------------------------------------------------------------------|
C:---------------------------------------------------------------------|
G:---------3-3-3-3-3-3-3-3---------------------------------------------|
D:-4-4-4-4-----------------2-2-2-2-2-2-2-2-1-1-1-1-1-1-1-1-0-0-0-0-0-2-|

F:-----------------------------------------------------|
C:-----------------------------------------------------|
G:---------------------4-4-4-4-4-4-4-4-4-4-4-4-4-4-4-4-|
D:-2-2-4-4-4-4-4-4-4-4---------------------------------|

Now play pre-chorus and chorus again.

Play this riff twice under the guitar solo:

F:---------------------------------------------------------------------|
C:---------------------------------------------------------------------|
G:-----------------3-3-3-3-3-3-3-3-------------------------------------|
D:-4-4-4-4-4-4-4-4-----------------2-2-2-2-2-2-2-2-1-1-1-1-1-1-1-1-0-0-|

F:-------------------------------------------------------------|
C:-------------------------------------------------------------|
G:-------------------------------------------------------------|
D:-0-0-0-2-2-2-4-4-4-4-4-4-4-4-6-6-6-6-6-6-6-6-5-5-5-5-5-5-5-5-|


After that, play pre-chorus again, this time with Dave almost screaming the lyrics, 
by the chorus x2. Easy!!


Important: The song above is NOT stored on the Chordie server. The original song is hosted at www.ultimate-guitar.com. Chordie works as a search engine and provides on-the-fly formatting. Chordie does not index songs against artists/composers will. To remove this song please click here.

This song is displayed as text-only. Transposing and tuning is only available for chordpro-songs.

Login - add to songbook

Rating click stars to rate

Layout
Accuracy

SHARE PAGE  




You need to log in to post comments