Someone Who Believes In You

Russel Hitchcock

 B7
l---------2----------------------2-------|l
l-----4-------4---5--2-4-5-4-2-0---5-4---|l
l----------------------------------------|l
l---4---4---4---4--------4-------4-2-2---|l
l-2--------------------------------------|l
l----------------------------------------|l


Verse :
 Bsus4B
when there's a dark storm on your horizon
 Bsus4B
and you think you can't get through it
 C#mF#B
just put your hand in my hand
 EF#
and I'll show you how to do it

 Bsus4B
when the future looks uncertain
 Bsus4B
you can count on my to be there
 C#mF#B
and when your heart and soul are hurtin'
 EF#
just look and you'll see me there

Chorus
------

 B
just follow where I lead
 C#m
I'll give you what you need
 F#
a Love that's always true
 EF#B
and someone who believes in you

Verse :
------

 Bsus4B
So when you're searching for that rainbow
 Bsus4B
      I will help you find it
 C#mF#B
And when a mountain stands before you
 EF#
 I will help you climb it

 B
just follow where I lead
 C#m
I'll give you what you need
 F#
a Love that's always true
 EF#B
and someone who believes in you

Bridge :

 G#mC#m
it's time to come alive
 G#mC#m
your moment has arrived
 F#B
I'll bring out the best in you

 G#mC#m
we can have it all
 G#mC#m
no we will never fall
 EF#
looking down from our celestial view

Solo : (Saxphone arranged for Guitar)

--7-9-11-11p12-11-11b12-9h11b12-------------|
--------------------------------12----------|
-----------------------------------11-------|
--------------------------------------------|
--------------------------------------------|
--------------------------------------------|
--------------------------------------------|
-------------------10-----------------------|
--8-11-12-12-12-12----12-11-----------------|
--------------------------------------------|
--------------------------------------------|
--------------------------------------------|
--------------------------------------------|
--------------------------14s16-12----------|
-8-11-13-13-13-13-11-9-11-------------------|
--------------------------------------------|
--------------------------------------------|
--------------------------------------------|
-----------------------------------------------|
-----12-16-17-16-14-16-------------------------|
--13-------------------11h13-11-9hp11-11-11b13-|
-----------------------------------------------|
-----------------------------------------------|
-----------------------------------------------|


Half step up
------------

 C
just follow where I lead
 Dm
I'll give you what you need
 G
and I'll tell you something else
 FG
you'll start believing in yourself

 DmG
it's an easy thing to do
 FGC
when you have someone who believes in you

 C
someone who believes
 Dm
Someone who Believes
 G
I'm someone who believes
 FGC
and you got someone who believes in you

Outro :

 C7
l---------3----------------------3-------3--|l
l-----5-------5---6--3-5-6-5-3-----6-5-3-5--|l
l------------------------------5---------5--|l
l---5---5---5---5----------------5-3-3-0-5--|l
l-3----------------------5---------------3--|l
l-------------------------------------------|l


That's it! contact me at metia_kickass@hotmail.com for any help.
-------------------------------------------------------------------------


END

+--------------------------------------------------------------------------+

| This file is the author's own work and represents their interpretation |
| of the song. You may only use this file for private study, scholarship, |
| or research. |
+--------------------------------------------------------------------------+


Ultimate-Guitar.Com © 2005


B B7 Bsus4 C C#m C7 Dm E F F# G G#m
variations - click chord images
Transpose chords:
Tuning:
Cool service:
View: Size:
A  A  A
Rating:
Layout:
  • Currently 0/5 Stars.
  • 1
  • 2
  • 3
  • 4
  • 5
 
Accuracy:
  • Currently 0/5 Stars.
  • 1
  • 2
  • 3
  • 4
  • 5
 
click stars to rate
Chordie recommends:
Learn how to play guitar at JamPlay.com
Songbook:
Login to add this song to your songbook
Support the artist
Preview/buy this song
MSN Music
Why this non-profit ad?

 
login to add comments/video/corrections