For The Sake Of The Call

Steven Curtis Chapman

For The Sake Of The Call---Steven Curtis Chapman---Transfered by Asa Gaston

e: --0-- --0-- --0-- --0-- --0-- --0-- --0-- --0--
B: --0-- --0-- --0-- --0-- --0-- --0-- --0-- --0--
G: --9-- --8-- --9-- --8-- --7-- --1-- --2-- --4--
D: --9-- --9-- --9-- --9-- --7-- --2-- --4-- --6--
A: --7-- --7-- --0-- --0-- --5-- --2-- --4-- --6--
E: --0-- --0-- --X-- --X-- --X-- --0-- --X-- --X--

 AsusABsusBC#7C#m
e: --0--   --0--   --0--   --0--   --4--   --4--
B: --0--   --0--   --0--   --0--   --0--   --5--
G: --6--   --2--   --8--   --4--   --4--   --6--
D: --7--   --2--   --9--   --4--   --3--   --6--
A: --7--   --0--   --9--   --2--   --4--   --4--
E: --5--   --X--   --7--   --X--   --X--   --4--


-------------------

 EsusEsus1AsusAsus1
e:-----0-------------- |         ------0-------------- |
B:-----0---0-----0---- |         ------0---0-----0---- |
G:-----9---8-----8h9-- | 2 BARS  ------9---8-----8h9-- | 2 BARS
D:-----X---9-----9---- |         ---9--X---9-----9---- |
A:--7----------------- |         ---0----------------- |
E:--0----------------- |         ---X----------------- |


PLAY INTRODUCTION RIFF FOR ABOUT TWICE (8 BARS) then start the song
at the 2nd bar of the third round...

Nobody stood and applauded them |>
|> Play the same as the intro
So they knew from the start |> riff for about 8 bars.
|>
This road would not lead to fame |>
 DsusC#7F#msus
All they really knew for sure was Jesus had called to them
 G#msusAsusDsus
He said "Come follow me" and they came
 F#msusA
With reckless abandon they came

Empty nets lying there at the waters edge |>
|> Play the same as the
Told a story that few could believe |> intro riff for about
|> 8 bars.
And none could explain |>
 DsusC#7F#msusG#msus
How some crazy fishermen agreed to go where Jesus led     

 AsusDsus
With no thought for what they would gain
 F#msusAsusAsusBsus
For Jesus had called them by name and they answered

CHORUS :
 EF#msusG#msusEsusBsusAsusF#msus
 We will   a......bandon it   all for the sake of the call
 EF#msusG#msusEsusBsusAsusF#msus
 No ot.....her    reason at   all but the sake of the call
 AsusG#msusDsusA
 Wholly devoted to live and to die...

BRIDGE :

 BC#m
 Not for the sake of a creed or a cause
 AAB
 Not for a dream or a promise
 BC#m
 Simply because it is Jesus who calls
 ADsus
And if we believe we'll obey
 AAB
  And we'll answer....        

CHORUS :
 EF#msusG#msusEsusBsusAsusF#msus
 We will   a......bandon it   all for the sake of the call
 EF#msusG#msusEsusBsusAsusF#msus
 No ot.....her    reason at   all but the sake of the call
 AsusG#msusDsusA
 Wholly devoted to live and to die
 BsusEG#msusA
For the sake of the call....      (Repeat the last line a few
times before ending the song)

END

+--------------------------------------------------------------------------+

| This file is the author's own work and represents their interpretation |
| of the song. You may only use this file for private study, scholarship, |
| or research. |
+--------------------------------------------------------------------------+


Ultimate-Guitar.Com © 2005


A Asus B Bsus C#7 C#m Dsus E Esus Esus1 F#msus G#msus
variations - click chord images
Transpose chords:
Tuning:
Cool service:
View: Size:
A  A  A
Rating:
Layout:
  • Currently 0/5 Stars.
  • 1
  • 2
  • 3
  • 4
  • 5
 
Accuracy:
  • Currently 0/5 Stars.
  • 1
  • 2
  • 3
  • 4
  • 5
 
click stars to rate
Chordie recommends:
Learn to play songs at Jamplay.com with video guitar lessons
Songbook:
Login to add this song to your songbook
Support the artist
Preview/buy this song
MSN Music
Why this non-profit ad?

 
login to add comments/video/corrections