Chordie logo


   Various Artists


-----------------------------------------------------------------
SONG TO SAY GOODBYE - Placebo
-----------------------------------------------------------------
Tabbed by: gorrki1
Email: julianprott@web.de

Tuning: Standard


THIS IS THE ALBUM-VERSION, NOT THE RADIO-VERSION!!!
(radio-version has the same parts, but in a little bit different order)


Intro (0:00 – 0:11):

(Piano)
e|16-----18------------------------------------------------------|
B|---16-----16---------------------------------------------------|
G|--------------15--16--18--20-----------------------------------|
D|---------------------------------------------------------------|  2x
A|---------------------------------------------------------------|
E|---------------------------------------------------------------|

Guitar (comes in at 0:06)
e|---------------------------------------------------------------|
B|---------------------------------------------------------------|
G|---------------------------------------------------------------|
D|---------------------------------------------------------------|
A|6-6-6-6-6-6-6-6-6-6-6-6-6-6-6-6-6-6-6-6-6-6-6-6-6-6-6-7-7-7-7-7|  1x
E|---------------------------------------------------------------|


Verse (0:12 – 0:57):

Guitar
e|---------------------------------------------------------------|
B|---------------------------------------------------------------|
G|---------------------------------------------------------------|
D|---------------------------------------------------------------|
A|6-6-6-6-6-6-6-6-6-6-6-6-6-6-6-6-6-6-6-6-6-6-6-6-6-6-6-7-7-7-7-7|  8x
E|---------------------------------------------------------------|

(effect) (comes in at 0:35)
e|22-18--18---------------22-------------------------------------|
B|----------19--19-----------------------------------------------|
G|-----------------18--18----------------------------------------|
D|---------------------------------------------------------------|  4x
A|---------------------------------------------------------------|
E|---------------------------------------------------------------|


Pre-Chorus (0:58 – 1:09):

Guitar 1
e|--------------------------------------------------------------------|
B|--------------------------------------------------------------------|
G|9-9-9-9-9-9-9-9-9-9-9-9-9-9-9-9-9-9-9-9-9-9-9-9-9-9-9-9-9-9-9-9-----|
D|9-9-9-9-9-9-9-9-9-9-9-9-9-9-9-9-9-9-9-9-9-9-9-9-9-9-9-9-9-9-9-9|----|
A|7-7-7-7-7-7-7-7-7-7-7-7-7-7-7-7-7-7-7-7-7-7-7-7-7-7-7-7-7-7-7-7| ---|
E|7-7-7-7-7-7-7-7-7-7-7-7-7-7-7-7-7-7-7-7-7-7-7-7-7-7-7-7-7-7-7-7| ---|
								    1x
e|---------------------------------------------------------------| ---|
B|---------------------------------------------------------------| ---|
G|---------------------------------------------------------------|----|
D|9-9-9-9-9-9-9-9-9-9-9-9-9-9-9-9-9-9-9-9-9-9-9-9-9-9-9-9-9-9-9-9-----|
A|9-9-9-9-9-9-9-9-9-9-9-9-9-9-9-9-9-9-9-9-9-9-9-9-9-9-9-9-9-9-9-9-----|
E|7-7-7-7-7-7-7-7-7-7-7-7-7-7-7-7-7-7-7-7-7-7-7-7-7-7-7-7-7-7-7-7-----|

(ends on)
e|---------------------------------------------------------------|
B|---------------------------------------------------------------|
G|---------------------------------------------------------------|
D|8--------------------------------------------------------------|
A|8--------------------------------------------------------------|
E|6--------------------------------------------------------------|

Guitar 2
e|---------------------------------------------------------------|
B|---------------------------------------------------------------|
G|---------------------------------------------------------------|
D|9-9-9-11-11-11-9-9---------------------------------------------|  6x
A|---------------------------------------------------------------|
E|---------------------------------------------------------------|

(ends on)
e|---------------------------------------------------------------|
B|---------------------------------------------------------------|
G|---------------------------------------------------------------|
D|8--------------------------------------------------------------|
A|---------------------------------------------------------------|
E|---------------------------------------------------------------|


Bridge (1:10 – 1:21):

(Piano)
e|16-----18------------------------------------------------------|
B|---16-----16---------------------------------------------------|
G|--------------15--16--18--20-----------------------------------|
D|---------------------------------------------------------------|  2x
A|---------------------------------------------------------------|
E|---------------------------------------------------------------|

Both Guitars
e|---------------------------------------------------------------|
B|---------------------------------------------------------------|
G|---------------------------------------------------------------|
D|--------8--------------8---------------8---------------8-------|  2x
A|6-6-6-6--6-6-6-9-9-9-9---9-9-9-4-4-4-4---4-4-4-4-4-4-4---4-4-4-|
E|---------------------------------------------------------------|


Verse (1:21 – 2:07):

The same as in first verse


Chorus (2:08 – 2:25)

(effect)
e|23-24-23----19-21-19----18-19-18—-(16)-------------------------|
B|---------21----------21----------------------------------------|
G|---------------------------------------------------------------|
D|---------------------------------------------------------------|  3x
A|---------------------------------------------------------------|
E|---------------------------------------------------------------|

Guitar 1
e|---------------------------------------------------------------|
B|---------------------------------------------------------------|
G|----------------4-4-4-4-4-4-4-4--------------------------------|
D|6-6-6-6-6-6-6-6-4-4-4-4-4-4-4-4-4-4-4-4-4-4-4-4-4-4-4-4-4-4-4-4|  3x
A|6-6-6-6-6-6-6-6-2-2-2-2-2-2-2-2-4-4-4-4-4-4-4-4-4-4-4-4-4-4-4-4|
E|4-4-4-4-4-4-4-4-----------------2-2-2-2-2-2-2-2-2-2-2-2-2-2-2-2|

Guitar 2
e|---------------------------------------------------------------|
B|---------------------------------------------------------------|
G|---------------------------------------------------------------|
D|9-9-9-9-9-9-9-9-9-9-9-9-9-9-9-9-8-8-8-8-8-8-8-8-8-8-8-8-8-8-8-8|  2x
A|---------------------------------------------------------------|
E|---------------------------------------------------------------|

e|--------------------------------------------------------------------|
B|--------------------------------------------------------------------|
G|--------------------------------------------------------------------|
D|9-9-9-11-11-11-9-9-9-9-9-11-11-11-9-9--------------------------|----|
A|---------------------------------------------------------------| ---|
E|---------------------------------------------------------------| ---|
                                                                    1x
e|---------------------------------------------------------------| ---|
B|---------------------------------------------------------------| ---|
G|---------------------------------------------------------------|----|
D|8-8-8-11-11-11-8-8-8-8-8-11-11-11-8-8-------------------------------|
A|--------------------------------------------------------------------|
E|--------------------------------------------------------------------|


Pre-Chorus (2:25 – 2:36):

Same as in first Pre-Chorus


Outro-Chorus  (2:25 – 3:36):

Guitar 1
e|---------------------------------------------------------------|
B|---------------------------------------------------------------|
G|----------------4-4-4-4-4-4-4-4--------------------------------|
D|6-6-6-6-6-6-6-6-4-4-4-4-4-4-4-4-4-4-4-4-4-4-4-4-4-4-4-4-4-4-4-4|  8x
A|6-6-6-6-6-6-6-6-2-2-2-2-2-2-2-2-4-4-4-4-4-4-4-4-4-4-4-4-4-4-4-4|
E|4-4-4-4-4-4-4-4-----------------2-2-2-2-2-2-2-2-2-2-2-2-2-2-2-2|

(ends on)
e|---------------------------------------------------------------|
B|---------------------------------------------------------------|
G|---------------------------------------------------------------|
D|6--------------------------------------------------------------|
A|6--------------------------------------------------------------|
E|4--------------------------------------------------------------|

Guitar 2
e|---------------------------------------------------------------|
B|---------------------------------------------------------------|
G|---------------------------------------------------------------|
D|9-9-9-9-9-9-9-9-9-9-9-9-9-9-9-9-8-8-8-8-8-8-8-8-8-8-8-8-8-8-8-8|  2x
A|---------------------------------------------------------------|
E|---------------------------------------------------------------|

e|--------------------------------------------------------------------|
B|--------------------------------------------------------------------|
G|--------------------------------------------------------------------|
D|9-9-9-11-11-11-9-9-9-9-9-11-11-11-9-9--------------------------|----|
A|---------------------------------------------------------------| ---|
E|---------------------------------------------------------------| ---|
								    6x
e|---------------------------------------------------------------| ---|
B|---------------------------------------------------------------| ---|
G|---------------------------------------------------------------|----|
D|8-8-8-11-11-11-8-8-8-8-8-11-11-11-8-8-------------------------------|
A|--------------------------------------------------------------------|
E|--------------------------------------------------------------------|

(ends on)
e|---------------------------------------------------------------|
B|---------------------------------------------------------------|
G|---------------------------------------------------------------|
D|9--------------------------------------------------------------|
A|---------------------------------------------------------------|
E|---------------------------------------------------------------|


At 3:00 starts again:

(strings)
e|23-24-23----19-21-19----18-19-18—-(16)-------------------------|
B|---------21----------21----------------------------------------|
G|---------------------------------------------------------------|
D|---------------------------------------------------------------|  4x
A|---------------------------------------------------------------|
E|---------------------------------------------------------------|

| /  slide up
|   slide down
| h  hammer-on
| p  pull-off
| ~  vibrato
| +  harmonic


Important: The song above is NOT stored on the Chordie server. The original song is hosted at www.ultimate-guitar.com. Chordie works as a search engine and provides on-the-fly formatting. Chordie does not index songs against artists/composers will. To remove this song please click here.

This song is displayed as text-only. Transposing and tuning is only available for chordpro-songs.

Login - add to songbook

Rating click stars to rate

Layout
Accuracy

SHARE PAGE  




You need to log in to post comments