Chordie logo

Dark Side Of The Moon  Pink Floyd














Pink Floyd
The Dark Side Of The Moon
This Album is Dedicated to Syd Barrett,
The Founder of Pink Floyd

/=slide up
=slide down
b=bend
p=pulloff
h=hammeron
()=optional note
X=muted string
d=downstroke
u=upstroke

____________________________________________________________________________

____________________________________________________________________________

____________________________________________________________________________

____________________________________________________________________________

____________________________________________________________________________

Side I


____________________________________________________________________________

____________________________________________________________________________

____________________________________________________________________________

*Speak To Me (Mason)*

When all the laughing is heard on "Speak To Me", there is feedback for the
B note.


____________________________________________________________________________

____________________________________________________________________________

____________________________________________________________________________


*Breathe (Gilmour, Waters, Wright)*

intro:
|----0-------------------------------------------|

|---0------------0--------------2-------2-3-2----|
|--0-----------0---0----------2------------------|
|-2---------2---------------2--------------------|
|-------------------------0----------------------|
|------------------------------------------------|
|-----0----------------------------------------------|
|------0-------------0--------------2----2h3-2---2---|
|-------0----------0---0----------2----------------2-|
|--------2------2---------------2--------------------|
|-----------------------------0--------0-------0-----|
|-0--------------------------------------------------|

This part might sound good with a slide:
|-12-----------------------------12-----------------|

|------------12-/-14------------------------12-/-14-|
|---------------------------------------------------|
|---------------------------------------------------|
|---------------------------------------------------|
|---------------------------------------------------|
|-14---------10-/-12--------------------------------|
|---------------------------------12--------12-/-14-|
|---------------------------------------------------|
|---------------------------------------------------|
|---------------------------------------------------|
|---------------------------------------------------|
|-7-----------7-------------7-/8---7--5-------------------------|
|--------------------------------------------8----6-------------|
|----------------------------------------------------7-/-9------|
|---------------------------------------------------------------|
|---------------------------------------------------------------|
|---------------------------------------------------------------|

[Em]  Breathe, breathe in the [A]air,
[Em]  Don't be afraid to [A]care.
[Em]  Leave, but don't leave [A]me.
[Em]  Look around, choose your [A]own ground.

[C]Long you live, and high you fly
And [Bm]smiles you'll give and tears you'll cry
And [fmaj7]all you touch and all you see
Is [G]all your life will [F]ever be  [Em]

[Em]  Run, rabbit [A]run
[Em]  Dig that hole, forget the [A]sun
[Em]  And when at last the work is [A]done
[Em]  Don't sit down, It's time to dig a[A]nother one

[C]For long you live and high you fly
[Bm]But only if you ride the tide
[Am]And balanced on the biggest wave
You [G]race towards an [F]early grave [Em]



____________________________________________________________________________

____________________________________________________________________________

____________________________________________________________________________



*On The Run (Gilmour, Waters)*

This is the synthesizer for about the whole song, and played very fast.
|--------------------------------|

|--------------------------------|
|--------------------------------|
|-------0h2-0h2--------0h2-0h2---|
|----0h2------------0h2----------|
|-0h3------------0h3-------------|




____________________________________________________________________________

____________________________________________________________________________

____________________________________________________________________________

Time
Pink Floyd
The Dark Side Of The Moon



Intro:
|---------------------------|---------------------------|

|---------------------------|---------------------------|
|---------------------------|---------------------------|
|---------------------------|---------------------------|
|---------------------------|---------------------------|
|-0-----------------------2-|-0-----------------------2-|
|---------------------------|---------------------------|
|---------------------------|---------------------------|
|---------------------------|---------------------------|
|---------------------------|---------------------------|
|---------------------------|---------------------------|
|-0-------------------0~--2-|-0-------------------0~--2-|
|---------------------------|---------------------------|
|---------------------------|---------------------------|
|---------------------------|---------------------------|
|---------------------------|---------------------------|
|---------------------------|---------------------------|
|-2-------------------------|-5------------------4-2--0-|
|---------------------------|
|---------------------------|
|---------------------------|
|---------------------------|
|---------------------------|
|-0-------------------0~--2-|



[F#m]Ticking away the moments that make up the [A]dull day
|------------------------------------------------------------------|

|----------------------------------------------------3--2------2---|
|----------------------------------------------------2--2------2---|
|-----------------------------------------2------------------------|
|------------------------------------------------------------------|
|------------------------------------------------------------------|


You [E]fritter and waste the hours in an off hand [F#m]way





|-------------------------------------------------------------------------------|

|-------------------------------------0---0----------------------------2--------|
|-------------------------------------1---1---------------4b6---6r4p2--2--------|
|------------------------------------------------------------------------2--2---|
|-------------------------------------------------------------------------------|
|-------------------------------------------------------------------------------|



[F#m]Kicking around on a piece of ground in your [A]home town
|-----------------------------------------------------5---7----7/9-9-9---7--|

|----------------------------------------------------------------------------|
|--------------------------------------------------/6-----7----7/9-9-9---7--|
|----------------------------4-2---------------------------------------------|
|----------------------------------------------------------------------------|
|----------------------------------------------------------------------------|


[E]Waiting for someone or something to show you the [F#m]way
|-----------0---0-------------------0----0----------------------|

|-----------0---0-------------------0----0-----------2-----2-2--|
|----------------------------------------------------2-----2-2--|
|---------------------------------------------------------------|
|---------------------------------------------------------------|
|----------------------0--0-0-----------------------------------|

[Dmaj7]Tired of lying in the sunshine [Amaj7]staying home to watch the rain

[Dmaj7]You are young and life is long and [Amaj7]there is time to kill today

[Dmaj7]  And then one day you find[C#m]   that ten years have got behind you


[Bm]No one told you when to run,       [E]you missed the starting gun
|--------------------------------------------------------------------------|

|--------------------------------------------------------------------------|
|--------------------------------------------------------------------------|
|--------------------------------------------------------------------------|
|-------------------------------------------------(roll pic down string)---|
|--------------------------2b3-2-0-----------------------------------------|

Guitar Solo:
|--------------------------------------------------------------5------|

|----------2----------------------------------------5-5--5-5-5----7---|
|-----4b6--------4b6r4-b6r4p2-4------------------/6-------------------|
|-4--------------------------------4-b-5-r-4------------------------4-|
|---------------------------------------------------------------------|
|---------------------------------------------------------------------|
|-------------------------9--9b10-9-7----------------------|
|---------------------------------------10-9--9b10r9-------|
|-4b6---6r4p2--4b6-----/9----------------------------9/11--|
|----------------------------------------------------------|
|----------------------------------------------------------|
|----------------------------------------------------------|
|-------------------17-----------------------------------------------------------------------------|
|-------14-17b19-------17b19-----17h19p17-17-------------------------------17-17-------------------|
|----14---------------------------------------18--18b19b18-16b18-r-16-16---------16b18r16--14------|
|-16--------------------------------------------------------------------------------------------16-|
|--------------------------------------------------------------------------------------------------|
|--------------------------------------------------------------------------------------------------|
|----17b19---17-------------------------------------------19b21-r---pb21-r-19---19-19-|
|-14-------------17b19----17p14-------------------------------------------------------|
|-------------------------------14--16--14-16b18--------------------------------------|
|------------------------------------------------------19-----------------------------|
|-------------------------------------------------------------------------------------|
|-------------------------------------------------------------------------------------|
|-16----------------------------------------|
|-----17------17-b19-19-----19-19-1914-----|
|---------16--------------------------------|
|-------------------------------------------|
|-------------------------------------------|
|-------------------------------------------|
|----------5/7-5------------------------------------------------------------|
|-------7-----------9/10--9-5-5-----7-/9-9-----75-5h7-----52/5--2--------|
|---2/6-----------------------------------------------------------------4b6-|
|-4-------------------------------------------------------------------------|
|---------------------------------------------------------------------------|
|---------------------------------------------------------------------------|
|-----------------------------------------------------------------------------------------------------|
|-----------------------------------------------------------------------------------------------------|
|-6b7----6---4-2-4b6--r--4-2-4---2---------4----------------------------------------------------------|
|--------------------------------------/7------7p6-------------------------4--------------------------|
|---------------------------------------------------7-----7----------------4--------------------------|
|---------------------------------------------------------0----------------2--------------------------|




[F#m]And you run and run to catch up with the sun, but it's [A]sinking
|-----------------------------------------------------------------------------------|

|--------------------------------------------------------------------7---5---3---2--|
|-----------------------------------------------------------------------------------|
|----------------------------------------------------------------7/--7---6---4---2--|
|-----------------------------------------------------------------------------------|
|-----------------------------------------------------------------------------------|


[E]And racing around to come up behind you [A]again
|----------------------------------------------------------------------|

|-----------------------------------------------------------------2----|
|---1-----------1-----------------------------2------4b6---6r4p2--2----|
|---2-------------------------------------------4-------------------2--|
|---2------------------------------------------------------------------|
|----------------------------------------------------------------------|


[F#m]The sun is the same in a relative way, but you're [A]older
|--------------------------------------------------------------5----7-7---5--|

|-------------------------------------------------------5-----------------5--|
|--------------------------------------2---2------------6---/6------7-7---6--|
|--------------------------------------4---4------------7---------------------|
|-----------------------------------------------------------------------------|
|-----------------------------------------------------------------------------|


[E]Shorter of breath and one day closer to [A]death
|--------------------------------------------------------------------------------|

|----------0------------------0----0-----------------2-------------------2-2-----|
|----------1------------------1----1-----------------2----------2--------2-2-----|
|----------2------------------2----2---------------------4---------4-------------|
|--------------------------------------------------------------------------------|
|-------------------------------------------------2------------------------------|


[Dmaj7]Every year is getting shorter, [Amaj7]never seem to find the time
[Dmaj7]Plans that either come to naught or a [Amaj7]half page of scribbled lines
[Dmaj7]Hanging on in a quiet despe[C#m]ration is the English way
The [Bm]time is gone the song is over, [D]thought i'd something [C]more to say

_______________________________________________________________________________________________________

Breathe Reprise


  [Em7]                      [A7]                    [Em7]                            [A7]                                
|----------------------------5-----7---5---------0---------------0------------------9-----7--5--|

|------------------------------5------------------3-----------------0-------x----------------5--|
|---------2-4-------------/6-----6---7-------------0------------------------x---7/9---97-7--6--|
|-2-------4-5-----2---------------------------------2----------2--------2---x----------------7--|
|-2---------------0-----0----------------------------2------------------0---x---------0------0--|
|-0-----------------------------------------0---------0----0------------------------------------|



[Em7]  Home, Home a[A7]gain

[Em7]  I'd like to be here when I [A7]can.

[Em7]  When I come home cold and [A7]tired.

[Em7]  It's good to warm my bones beside the [A7]fire.


[C]Far away, across the field,

[Bm]The tolling of the iron bell

[Am]Call the faithful to their knees,

[G]To hear the softly [F]spoken magic [Em]spells


____________________________________________________________________________

____________________________________________________________________________

____________________________________________________________________________





*The Great Gig In The Sky (Wright)*

Chords to piano intro:
[Bm]     [Am]     [B#]     [F]                    
Where the guitar comes in:
|------------------------------------/8---|

|-/3-----3-/5---------/3-----3-/5----/10--|
|-/3-----3-/5---------/3-----3-/5----/10--|
|-/3-----3-/5---------/3-----3-/5---------|
|-----------------------------------------|
|-----------------------------------------|

The Chords for all of the screaming:
[Gm7]     [C9]    [Gm7]     [C9]    [Gm7]     [C9]    [Gm7]     [C9]    
[Bb]    [Bbm/Db]        [F#7]     [Bm]                  
[Bm]    [F]   [Fb5]     [F]   [F6]    [F]   [Fb5]     [F]   [Bb]    [F]  [Gm7] [C9] [Gm7] [C9]
[Fmaj7]       [Bbmaj7]        [Ebmaj7]        [Cm7]     [F7]    [Bbmaj7]    [Ebmaj7] [Bb]


____________________________________________________________________________

____________________________________________________________________________

____________________________________________________________________________

____________________________________________________________________________

____________________________________________________________________________



Side II




____________________________________________________________________________

____________________________________________________________________________

____________________________________________________________________________

*Money (Waters)*
intro:
|--------------------------------------------|

|--------------------------------------------|
|----4---------------------4-----------------|
|------4-------------0-------4-------------0-|
|-2------2-----0--2-----2------2-----0--2----|
|-----------2---------------------2----------|
|--------------------------------------------|
|--------------------------------------------|
|----4---------------------4-----------------|
|------4-------------0-------4-------------0-|
|-2------2-----0--2-----2------2-----0--2----|
|-----------2---------------------2----------|

Chorus:
|-2--7--7-9--------7--7-9-|

|-3--7--7-9--------7--7-9-|
|-4--7--7-9--------7--7-9-|
|-4-----------------------|
|-2-----------------------| Done over and over.
|-------------------------|

2nd Chorus:
|-------------------------------------|

|-------------------------------------|
|-------------------------------------|
|-4-4-4p0--------4-3-2---------2-p0---|
|------------0-4----------0-2-------2-|
|----------2------------3-------------|

At 2:28, during the saxophone solo:
|-12--12-14------------12--12-14------------12--12-14------------12--12-14-|

|-12--12-14------------12--12-14------------12--12-14------------12--12-14-|
|-12--12-14------------12--12-14------------12--12-14------------12--12-14-|
|-----------------5--------------------5-------------------5---------------|
|-------------5-7---5--------------5-7---5-------------5-7---5-------------|
|-----------7--------------------7-------------------7---------------------|

End of saxophone solo:
|------------------------------------------------------------|

|------------------------------------------------------------|
|-----------------------------------444444444444444444444444-|
|-4-4-4p0--------4-3-2---------2-p0-444444444444444444444444-|
|------------0-4----------0-2-------222222222222222222222222-|
|----------2------------3------------------------------------|

Guitar Solo:
|------------------------------------10---------------12b14-b12p10----|

|---------10b12---7-10---------10b12----12-12---12-12--------------12-|
|-9b11-7---------------9b11-7-----------------------------------------|
|---------------------------------------------------------------------|
|---------------------------------------------------------------------|
|---------------------------------------------------------------------|
|---------------------7----7-10-12-12b14------12-b-14-------|
|-----------------------10---------------12-----------------|
|-9b11-7-9------9b11----------------------------------------|
|----------9------------------------------------------------|
|-----------------------------------------------------------|
|-----------------------------------------------------------|
|-10-12--------------------------------------------------7-7-7-7-|
|-------12--10--7---------------------------7-------7-10---------|
|------------------9--7---------------------7--------------------|
|------------------------7--------------7h9---9-9----------------|
|---------------------------7------------------------------------|
|------------------------------10--7-----------------------------|
|-10-12-12b14b12p10-----14b16---14-12-10---------------|
|----------------------------------------12-10---------|
|----------------------------------------------9-11----|
|------------------------------------------------------|
|------------------------------------------------------|
|------------------------------------------------------|
|---------------------------------------------------7-|
|--------------------7----9----10--10-10-10-----------|
|-4-2-0--------------7----9----11--11-11-11-9-b-11----|
|-------4-2-0-----------------------------------------|
|-------------4-3-2-----------------------------------|
|-----------------------7----7------------------------|

2nd Guitar Solo:
|-7-----------------------------------------------|

|-7---/12-12-12-15--------------------------------|
|-7-------------------9b11---7h9-------7----7-----|
|--------------------------------9-----7----7h9---|
|-------------------------------------------------|
|-------------------------------------------------|
|--------------------------------------------------------|
|--------------------------------------------------------|
|-9b11---9b11-9b11---11b9p7-9b11-9b11--11b9p7-9-9---p7---|
|------------------------------------------------------9-|
|--------------------------------------------------------|
|--------------------------------------------------------|
|-------------10-12b14-14--12p10-------------------------|
|-/12-15---12----------------------10-10-10-7------------|
|----------------------------------------------9b11b9b11-|
|--------------------------------------------------------|
|--------------------------------------------------------|
|--------------------------------------------------------|
|----------------------------------------10-12-12b14--10h12----|
|--------------------7----9----10--10-12--------------------12-|
|-4-2-0--------------7----9----11--11--------------------------|
|-------4-2-0--------------------------------------------------|
|-------------4-3-2--------------------------------------------|
|-----------------------7----7---------------------------------|

3rd Guitar Solo:
|---22b24---22-22-22--19---------------------------------------------------|

|19------------------------------19-17---------19b21---17------------------|
|--------------------------16-19-------19-16--------------19-16------------|
|---------------------------------------------------------------16----16-16|
|------------------------------------------------------------------17------|
|--------------------------------------------------------------------------|
|---------------22b24--22-22-22-19----17b19--14-17------------14-|
|------------19------------------------------------17-15---17----|
|-16-19-16-------------------------------------------------------|
|----------------------------------------------------------------|
|----------------------------------------------------------------|
|----------------------------------------------------------------|
|-------------22---------22b24---22-22-22-19-----17----------|
|-22b24-22b24----24---19---------------------19-----19-------|
|------------------------------------------------------19----|
|---------------------------------------------------------16-|
|------------------------------------------------------------|
|------------------------------------------------------------|
|------------------------|
|-12-10-8----------------|
|---------11-9-7---------|
|----------------11-10-9-|
|------------------------|
|------------------------|

Chorus:
|-2--7--7-9--------7--7-9-|

|-3--7--7-9--------7--7-9-|
|-4--7--7-9--------7--7-9-|
|-4-----------------------|
|-2-----------------------| Done over and over.
|-------------------------|

2nd Chorus:
|-------------------------------------|

|-------------------------------------|
|-------------------------------------|
|-4-4-4p0--------4-3-2---------2-p0---|
|------------0-4----------0-2-------2-|
|----------2------------3-------------|





____________________________________________________________________________

____________________________________________________________________________

____________________________________________________________________________



*Us And Them (Wright, Waters)*

intro (Also Chorus):
|---------5---------------5-------|---------7---------------7-------|

|-----5-----5---5-----5-----5---5-|-----7-----7---7-----7-----7---7-|
|---7---7-----7-----7---7-----7---|---9---9-----9-----9---9-----9---|
|-0---------------0---------------|-0---------------0---------------|
|---------------------------------|---------------------------------|
|---------------------------------|---------------------------------|
|------------9---------------------9--9------------|
|------10------10----10------10----10-10--10----10-|
|---10----10------10------10----10-10-10-----10----|
|-0---------------------0--------------------------|
|--------------------------------------------------|
|--------------------------------------------------|
|---------7-----7---------7-----7-|
|-----8-----8--8------8-----8--8--|