Autumn Leaves

Eva Cassidy

 Dm
|--1--0--------|
|--------3--1--|
|--------------|
|--0-----------|
|--------------|
|--------------|


 GAmG/BCG/B
|-----------------------0--|--0-------------------------|
|--0-----------0--1--3-----|--------1-----3--------1p0--|
|--------0-----------------|-----0-----0--------0-------|
|-----0-----0--------------|-----------------0----------|
|-----------------0--2-----|--3-----------2-------------|
|--3-----------3-----------|----------------------------|


 AmGF7
|----------------------------|--------------1-----------|
|--1-----0h1-----0-----------|-----------1--------1-----|
|-------------2--0-----0-----|-----------------2-----2--|
|-----2--2----------0-----0--|--------1-----------------|
|--0-----0-------------------|-----2--------------------|
|----------------3-----------|--1-----------------------|


 EAmBm6
|--------------0-----------|--------0-------------------|
|-----------0--------0-----|-----1-----1--/3------------|
|--------1--------1-----1--|--------2---------0-----0---|
|-----2--------------------|-----2-----2--/4-----4------|
|--------------------------|--0-------------------------|
|--0-----------0-----------|----------------------------|


 Am7AmDm7
|--------0----------------|---------------1-------------|
|-----1-----1----0--------|---------1-----1-----1-------|
|--------2-------2--------|------2-----2-----2-----2----|
|-----2-----2----2--------|---0-----------0-------------|
|--0-------------0--------|-----------------------------|
|-------------------------|-----------------------------|

The falling...leaves

 GCsus2
|--------------------------|--0-------------------------|
|--0-----------1-----3-----|-------3--------3-----3-----|
|--------0--------0-----0--|----0-----0-----------------|
|-----0-----0--------------|-------------0-----2--------|
|--------------0-----2-----|--3-------------------------|
|--3-----------------------|----------------------------|

drift by my window

 Fmaj7Dm7

|--------------------------|----------------------------|
|--------1-----------1-----|--------1-----------1-------|
|-----2-----2-----2-----2--|-----2-----2-----2-----2----|
|--3-----------3-----------|--0-----------0-------------|
|--------------------------|----------------------------|
|--------------------------|----------------------------|

The fall...ing leaves

 EAmBm6
|--------------------------|----------------------------|
|--------------------------|--------------/3------------|
|-----------1-----------1--|--------2---------0-----0---|
|--------2-----------2-----|-----2-----2--/4-----4------|
|-----2-----------2--------|--0-------------------------|
|--0-----------0-----------|----------------------------|

of red and gold

 Am7AmDm7
|--------0-----------------|--------------1-------------|
|-----1-----1--1--------1--|--------1-------------------|
|--------0-----------2-----|-----2-----2-----2--2-------|
|-----2-----2-----2--------|--0-----------0--------0----|
|--0-----------0-----------|--------------------0-------|
|--------------------------|----------------------------|

I see your lips

 GCsus2
|--------------------------|--0-------------------------|
|--0-----------1-----3-----|--------3-----3-----3-------|
|--------0--------0-----0--|-----0-----0-----0-----0----|
|-----0-----0--------------|--------------0-----2-------|
|--------------0-----2-----|--3-------------------------|
|--3-----------------------|----------------------------|

the summer kisses

 Fmaj7Dm7
|--------------------------|--------------1-------------|
|--------1-----------1-----|--------1-----------1-------|
|-----2-----2-----2-----2--|-----2-----2-----2-----2----|
|--3-----------3-----------|--0-----------0-------------|
|--------------------------|----------------------------|
|--------------------------|----------------------------|

the sun - burned hands

 EAmBm6
|--------------------------|----------------------------|
|--------------------------|--------------/3------------|
|-----------1--------------|--------2---------0-----0---|
|--------2--------2--------|-----2-----2--/4-----4------|
|-----2--------2--------2--|--0-------------------------|
|--0-----------------0-----|----------------------------|

I used to hold

 AmEsus
|--------0-----------------|--------------0-------------|
|-----1-----1--0-----------|-----------0---------0------|
|--------2--------2-----2--|--------2------------2------|
|--------------------2-----|------------------2-----2---|
|--0-----------0-----------|-----2----------------------|
|--------------------------|--0-------------------------|

Since you went away

 ED/F#Am7Bm6
|--------------------------|----------------------------|
|--------0-----------------|--------------/3------------|
|--1-----------2-----4-----|--------2---------0-----0---|
|-----2-----2-----0-----0--|-----2-----2--/4-----4------|
|--------------------------|--0-------------------------|
|--0-----------2-----4-----|----------------------------|

the days grow long

 AmDm7

|--------0-----------------|----------------------------|
|-----1-----1--0-----------|--------1-------------------|
|--------2--------0-----0--|-----2-----2-----2----------|
|-----2-----2--------2-----|--0-----------0--------0----|
|--0-----------0-----------|--------------------0-------|
|--------------------------|----------------------------|

and... soon I'll hear

 GC
|--------------------------|--0--------0----------------|
|--0-----------1-----3-----|--------1-------------------|
|--------0--------0-----0--|-----0-----------0-----0----|
|-----0-----0--------------|--------------0-----2-------|
|--------------0-----2-----|--3-------------------------|
|--3-----------------------|----------------------------|

old winter's song

 Fmaj7Dm7
|--------------------------|--------------1-------------|
|--------1-----------------|--------1-----------1-------|
|-----2-----2--------------|-----2-----2-----2-----2----|
|--3-----------3----//-----|--0-----------0-------------|
|--------------------------|----------------------------|
|--------------------------|----------------------------|

But I'll miss you

 E7AmAm/G
|--------------------------|----------------------------|
|--0-----------------------|----------------------------|
|-----------1-----------1--|--------2-----------2-------|
|--------0-----------0-----|-----2-----2-----2-----2----|
|-----2-----------2--------|--0-------------------------|
|--0-----------0-----------|--------------3-------------|

most of all

 Am/F#F7
|--------------------------|----------------------------|
|-----------1--------------|-----------------------1----|
|--------2-----------2-----|-----------2--------2-------|
|-----2-----------2-----2--|--------0-------------------|
|--------------------------|-----3-----------3----------|
|--2-----------2-----------|--1-----------1-------------|

my darling when

 EAm7Bm6
|--------------------------|----------------------------|
|-----------0--------------|---------------/3-----------|
|--------1-----------1-----|--------2----------0-----0--|
|-----------------------2--|-----2-----2---/4-----4-----|
|-----2-----------2--------|--0-------------------------|
|--0-----------0-----------|----------------------------|

autumn leaves start to fall

 Am9
|--------0-----0-----------|
|-----1-----1--------------|
|--------0-----2--------2--|
|-----2-----2--------2-----|    Instrumental
|--0--------------0--------|
|--------------------------|


 Dm7
|--------------1-----------|
|--------1-----------1-----|
|-----2-----2-----2-----2--|
|--0-----------0-----------|
|--------------------------|
|--------------------------|


 GC
|--------------------------|----------------------------|
|--0-----------1-----3-----|--1--------1--1-----1-------|
|--------0--------0-----0--|--------0--------0------0---|
|-----0-----0--------------|-----2--------0----0h2------|
|--------------0-----2-----|--3-------------------------|
|--3-----------------------|----------------------------|


 Fmaj7Dm7
|--------------0-----------|--------------1-------------|
|--------1-----------1-----|--------1-----------1-------|
|-----2-----2-----2-----2--|-----2-----2-----2-----2----|
|--3-----------3-----------|--0-----------0-----0-------|
|--------------------------|----------------------------|
|--------------------------|----------------------------|


 EAmBm6
|--------------------0-----|--------0-------------------|
|--------------0-----------|-----1-----1--/3------------|
|-----------1-----1-----1--|--------2---------0-----0---|
|--------2-----2-----2-----|-----2-----2--/4-----4------|
|-----2--------------------|--0-------------------------|
|--0-----------------------|----------------------------|


 Am7AmDm7
|--------0-----------------|--------1-----1-------------|
|-----1-----1--1-----------|--------1-----------1-------|
|--------0--------2-----2--|-----2-----2-----2-----2----|
|-----2-----2--------2-----|--0-----------0-------------|
|--0-----------0-----------|----------------------------|
|--------------------------|----------------------------|


 GC
|--------------------------|--0-------------------------|
|--0-----------1-----3-----|--------1-----1-----1-------|
|--------0--------0-----0--|-----0-----0-----0-------0--|
|-----0-----0--------------|--------------0-----0h2-----|
|--------------0-----2-----|--3-------------------------|
|--3-----------------------|----------------------------|


 Fmaj7Dm7
|--------------------------|--------1-----1-------------|
|--------1-----------1-----|--------1-----------1-------|
|-----2-----2-----2-----2--|-----2-----2-----2-----2----|
|--3-----------3-----------|--0-----------0-------------|
|--------------------------|----------------------------|
|--------------------------|----------------------------|


 EAmBm6
|--------------------0-----|--------0-------------------|
|--------------0-----------|-----1-----1--/3------------|
|-----------1-----1-----1--|--------2---------0-----0---|
|--------2-----------------|-----2-----2--/4-----4------|
|-----2--------------------|--0-------------------------|
|--0-----------------------|----------------------------|

End of Instrumental

 AmEsus
|--------0-----------------|--------------0-------------|
|-----1-----1--0-----------|-----------0---------0------|
|--------2-----2-----2-----|--------2------------2------|
|-----2-----2-----2-----2--|------------------2-----2---|
|--0-----------------------|-----2----------------------|
|--------------------------|--0-------------------------|

Since you went away

 ED/F#Am7Bm6
|--------------------------|--------0-------------------|
|--------0-----------------|-----1-----1--/3------------|
|--1-----------2-----4-----|--------2---------0-----0---|
|-----2-----2-----0-----0--|-----2-----2--/4-----4------|
|--------------------------|--0-------------------------|
|--0-----0-----2-----4-----|----------------------------|

the days grow long

 AmDm7
|--------0--------------0--|----------------------------|
|-----1-----1--1-----1-----|--------1-----------1-------|
|--------2--------2--------|-----2-----2-----2-----2----|
|-----2-----2--------------|--0-----------0-------------|
|--0-----------0-----------|----------------------------|
|--------------------------|----------------------------|

and... soon I'll hear

 GC
|--------------------------|--0--------0----------------|
|--0-----------1-----3-----|--------1-------------------|
|--------0--------0-----0--|-----0-----------0-----0----|
|-----0-----0--------------|--------------0-----2-------|
|--------------0-----2-----|--3-----------3-----3-------|
|--3-----------------------|----------------------------|

old winter's song.

 Fmaj7Dm7
|--------------------0-----|--1-----------1-------------|
|--------1-----------1-----|--------1-----------1-------|
|-----2-----2--------2-----|-----2-----2-----2-----2----|
|--3-----------3-----3-----|--0-----------0-------------|
|--------------------------|----------------------------|
|--------------------------|----------------------------|

But I'll miss you

 E7AmAm/G
|--------------------------|----------------------------|
|--------------------------|-----------1----------------|
|-----------1-----------1--|--------2-----------2-------|
|--------0-----------0-----|-----2-----------2-----2----|
|-----2-----------2--------|--0-------------------------|
|--0-----------0-----------|--------------3-------------|

most of all

 Am/F#F7
|--------------------------|----------------------------|
|-----------1--------------|----------------------------|
|--------2-----------2-----|-----------2-----------2----|
|-----2-----------2-----2--|--------0-----------0-------|
|--------------------------|-----3-----------3----------|
|--2-----------2-----------|--1-----------1-------------|

my darling when

 EAm7Bm6
|--------------------------|----------------------------|
|--------------------------|---------------/3-----------|
|-----------1-----------1--|--------2----------0-----0--|
|--------2-----------2-----|-----2-----2---/4-----4-----|
|-----2-----------2--------|--0-------------------------|
|--0-----------0-----------|----------------------------|

autumn leaves start to fall

 Am9Dm7
|--------0-----0-----------|--------------1-----1-------|
|-----1-----1--------1-----|--------1-----------1-------|
|--------2-----2--------2--|-----2-----2-----2-----2----|
|-----2-----2-----2--------|--0-----------0-------------|
|--0-----------------------|----------------------------|
|--------------------------|----------------------------|

I miss you

 EEsusAmAm/G
|--------------------------|----------------------------|
|--------------------0-----|--------1-----------1-------|
|--------1-----2-----------|--------2-----------2-------|
|-----2-----2-----2-----2--|-----2-----2-----2-----2----|
|-----2--------0-----2-----|--0-------------------------|
|--0-----------------------|--------------3-------------|

most of all

 Am/F#F7
|--------0-----------0-----|----------------------------|
|--1-----1-----1-----1-----|--1--------1----------------|
|--------------------------|--------------2-------------|
|-----2-----2-----2-----0--|--------1-------------------|
|--------------------------|-----3----------------------|
|--2-----------2-----------|--1-------------------------|

my darling when autumn

 EAmBm6

|--------------0-----------|----------------------------|
|--------------------------|--1-------------/3----------|
|-----------1--------------|--------2----------0-----0--|
|--------2-----------------|-----2-----2---/4-----4-----|
|-----2--------------------|--0-------------------------|
|--0-----------------------|----------------------------|

leaves start to fall

 Am
|--------0---------0-------|
|-----1-----1------0-------|
|--------2---------2-------|
|-----2-----2------2-------|
|--0---------------0-------|
|--------------------------|


END

+--------------------------------------------------------------------------+

| This file is the author's own work and represents their interpretation |
| of the song. You may only use this file for private study, scholarship, |
| or research. |
+--------------------------------------------------------------------------+


Ultimate-Guitar.Com © 2005


Am Am/F# Am7 Am9 Bm6 C Csus2 D/F# Dm Dm7 E E7 Esus F7 Fmaj7 G G/B
variations - click chord images
Transpose chords:
Tuning:
Cool service:
View: Size:
A  A  A
Rating:
Layout:
  • Currently 0/5 Stars.
  • 1
  • 2
  • 3
  • 4
  • 5
 
Accuracy:
  • Currently 4.3/5 Stars.
  • 1
  • 2
  • 3
  • 4
  • 5
 
click stars to rate
Chordie recommends:
Learn how to play guitar at JamPlay.com
Songbook:
Login to add this song to your songbook
Support the artist
Preview/buy this song
MSN Music
Why this non-profit ad?

 
login to add comments/video/corrections