Chordie logo


When A Man Loves A Woman  Michael Bolton



|-----------------------------------------9-----9----------------|

|-----------------------------------------9h11--9----------------|
|-----------------------8b10-8b10--6~---------------8b10r--6~----|
|-------------6=s8s6~--------------------------------------------|
|-4--6--6s8~-----------------------------------------------------|
|----------------------------------------------------------------|
|---------------------------------------------|
|------7--------------------------------------|
|------6--------------------------------------|
|-6s8-----6s8s6-----------------6s8---6\------|
|-------------------4--6--6s8~----------------|
|---------------------------------------------|
When a m[C]an loves a [C/B]woman  [Am]
Can't keep his m[G]ind on nothin' el[F]se
He'd trade the wo[G]rld
For a good thing he's fo[C]und
[C]If she is bad, he can't [C/B]see it [Am]
She can [G]do no wrong [F]
Turn his back on his b[G]est friend
If he puts her d[C]own   [G]
Verse:
When a m[C]an loves a w[C/B]oman  [Am]
|-9s11s9~---|
|-9s11s9~---|
|-----------|
|-----------|
|-----------|
|-----------|

Spend his very l[G]ast dime  [F]
|----------------------------------|
|----------------------------------|
|-8s10--8--6~--------6-------------|
|----------------6s8---8s6---------|
|----------------------------------|
|----------------------------------|

Trying to ho[G]ld on to what he ne[C]eds  [G]
He'd give up a[C]ll his c[C/B]omforts [Am]

And sleep out i[G]n the rain  [F]
|----------------|
|----------------|
|-8h10-8h10--6---|
|----------------|
|----------------|
|----------------|

If she said that's the w[G]ay
It ought to b[C]e  [Bb]


Chorus:
[F]When a man loves a w[C]oman
|-----------------9\--|
|-----9------9-9--9\--|
|-/10----/10----------|
|---------------------|
|---------------------|
|---------------------|

[F]I give you everything I've g[C]ot
|------------------------------------|
|-----9-9------9-9------9-9--9-------|
|-/10------/10------/10--------10----|
|---------------------------------11-|
|------------------------------------|
|------------------------------------|

[F]Trying to hold on
To y[C]our pre[C/B]cious l[Am]ove
[D7]Baby please don't treat me b[G]ad


(Put on the capo on the 2nd fret for the rest - for all that's below)
Verse:
When a [C]man loves a [C/B]woman  [Am]
|-----------------|
|-----------------|
|-9b11r--7~-------|
|-----------------|
|-----------------|
|-----------------|

Deep down in h[G]is soul  [F]
|--------------|
|--------------|
|-7h9--7~~-----|
|--------------|
|--------------|
|--------------|

She can br[G]ing him such mi[C]sery  [G]
|-7---------------|
|-7--10-----------|
|--------9p7-9~---|
|-----------------|
|-----------------|
|-----------------|

If she is pl[C]aying him for a f[C/B]ool   [Am]
|----------------------|
|----------------------|
|-9b11--7-9---7~-------|
|-----------9----------|
|----------------------|
|----------------------|

He's the l[G]ast one to know  [F]

|-------10~-|
|-10h12-----|
|-----------|
|-----------|
|-----------|
|-----------|

Loving ey[G]es can never s[C]ee
|-14--10s12s10---------------------|
|-15--10s12s10--10s12s10-----------|
|----------------9s11ss9---7s9s7---|
|--------------------------7s9s7---|
|----------------------------------|
|----------------------------------|

Yes when a m[C]an loves a [C/B]woman  [Am]
|----------7-----------------|
|-----7-10---10--------------|
|-7--------------9b11-9-7~~--|
|---7------------------------|
|----------------------------|
|----------------------------|

I know exactly h[G]ow he feels[F]
|-------10----10~----|
|-10s12----12--------|
|--------------------|
|--------------------|
|--------------------|
|--------------------|

'Cause baby, b[G]aby, baby
When a m[C]an loves a w[C/B]oman [F]    [G] (Repeat)

-Fade Out-

Chords:
C: x32010
C/B: x22010
G: 320033
Am: x02210
F: 133211
Bb: x1333x
D7: xx0212

END

+--------------------------------------------------------------------------+

| This file is the author's own work and represents their interpretation |
| of the song. You may only use this file for private study, scholarship, |
| or research. |
+--------------------------------------------------------------------------+


Ultimate-Guitar.Com © 2005

Important: The song above is NOT stored on the Chordie server. The original song is hosted at www.ultimate-guitar.com. Chordie works as a search engine and provides on-the-fly formatting. Chordie does not index songs against artists/composers will. To remove this song please click here.

Text color:
Chord color:
Chord grids: 
Font size:    
Page size: 

Am Bb C C/B D7 F G
variations - click chord images

Login - add to songbook

Transpose chords

Tuning

Rating click stars to rate

Layout
Accuracy

SHARE PAGE  




You need to log in to post comments