"yes"; ?> Betrayed by Avenged Sevenfold - guitar chords, guitar tabs and lyrics - chordie
|------------------|-----------------|-------------------|

|------------------|-----------------|-------------------|
|------------------|-----------------|-------------------|
|------------------|-----3---3/7\3-0-|-----2---5p3p2p0---|
|-----6---5---5tr--|---5---5---------|---4---4---------4-|
|-5-8---8---8------|-3---------------|-2-----------------|
|-----------------|x2
|-----------------|
|-----------------|
|-------3-2-------|
|-----3-------5-3-|
|-0-2-------4-----|
|---------|---------|---------|---------|---------|---------|---------|
|---------|---------|---------|---------|---------|---------|---------|
|---------|---------|---------|---------|---------|---------|---------|
|-0-2-3-8-|-8-8-8-8-|-5-3-5-5-|-5-5-5-5-|-0-2-3-3-|-3-3-3-3-|-5-3-5-5-|
|-0-3-3-8-|-8-8-8-8-|-5-3-3-3-|-3-3-3-3-|-0-3-3-3-|-3-3-3-3-|-5-3-3-3-|
|-0-2-3-8-|-8-8-8-8-|-5-3-2-2-|-2-2-2-2-|-0-2-3-3-|-3-3-3-3-|-5-3-2-2-|
|---------|------------|-----------|-------------|------------|
|---------|o-----------|-----------|-------------|-----------o|
|---------|------------|-3-3-------|-------------|------------|
|-5-5-5-5-|--3-3--2-22-|-3-3--3-33-|--8--8--7-77-|-5-5--3-33--|
|-3-3-3-3-|o-5-5--3-33-|-1-1--3-33-|-10-10--8-88-|-7-7--5-55-o|
|-2-2-2-2-|------------|------3-33-|-------------|------------|
|-----------------|-----------------|-----------------|-----------------|x3
|-------3---------|-------3---------|-----------------|-------------3---|
|-----3-----3-----|-----2-----2-----|-------3---------|---------2-----2-|
|---0---------0---|---0---------0---|-----5-----5-----|-3---5-----0-----|
|-----------------|-----------------|---4---------4---|---0---0---------|
|-5-------5-----5-|-3-------3-----3-|-2-------2-----2-|-0---2---3---4---|
|-----------------|-----------------|-----------------|---------------|
|-------3---------|-------3---------|-----------------|---------------|
|-----3-----3-----|-----2-----2-----|-------3---------|---------2/6---|
|---0---------0---|---0---------0---|-----5-----5-----|-3---5---------|
|-----------------|-----------------|---4---------4---|---0---0-----7-|
|-5-------5-----5-|-3-------3-----3-|-2-------2-----2-|-0---2---3/7---|
|-----------------|----------------|--|-----|--|-----|--|-----|------|
|-----------------|----------------|--|-----|--|-----|--|-----|------|
|-7-----7-----7---|-6~~~~~6/-------|--|-----|--|-----|--|-----|------|
|-----------------|------------0-0-|~~|~~0-0|~~|~~0-0|~~|~~0-0|~~5-3~|
|---7-----7---7---|-7~~~~~7/---0-0-|~~|~~0-0|~~|~~0-0|~~|~~0-0|~~3-3~|
|-7---7-----7---7-|-7~~~~~7/---0-0-|~~|~~0-0|~~|~~0-0|~~|~~0-0|~~2-3~|
|----|-----|----|
|----|-----|----|
|----|-----|----|
|--------------------|------------------|-------------------|
|-6/13-13-13\10-10\8-|-8-8-8---8-8^-(8)\|6/13-13-13\10-10\8-|
|--------------------|-------9----------|-------------------|
|--------------------|------------------|-------------------|
|--------------------|------------------|-------------------|
|--------------------|------------------|-------------------|
|----------------------|
|-8/17-17-17-17^-(17)/-|
|----------------------|
|----------------------|
|----------------------|
|----------------------|
|--------------------|------------------|-------------------|
|-6/13-13-13\10-10\8-|-8-8-8---8-8^-(8)\|6/13-13-13\10-10\8-|
|--------------------|-------9----------|-------------------|
|--------------------|------------------|-------------------|
|--------------------|------------------|-------------------|
|--------------------|------------------|-------------------|
|------------------|
|-8-8-8/10-10-8-10-|
|------------------|
|------------------|
|------------------|
|------------------|
|-1-------1---1-|-0------0---0-|-1-------1---1-|-0-----0-----0-|
|----3--------3-|---3--------3-|----3--------3-|---3-----3-----|
|-------2-----2-|------0-----0-|-------2-----2-|-----0-----0---|
|-0-------0---0-|--------------|-0-------0---0-|---------------|
|---------------|-3------3---3-|---------------|-3-----3-----3-|
|---------------|--------------|---------------|---------------|
|-1-------1---1-|-0------0---0-|-1-------1---1-|-0-----2-----|
|----3--------3-|---3--------3-|----3--------3-|---3-----3---|
|-------2-----2-|------0-----0-|-------2-----2-|-----0-----2-|
|-0-------0---0-|--------------|-0-------0---0-|-------0-----|
|---------------|-3------3---3-|---------------|-3-----------|
|---------------|--------------|---------------|-------------|
|------------------|------------------|------------------|-----------------|
|------------------|------------------|------------------|-----------------|
|------------------|------------------|------------------|-----------------|
|---------3333-----|---------5555-----|---------7777-----|---------8888----|
|-----0000----0000-|-----3333----3333-|-----5555----5555-|-----5555----5555|
|-0000-------------|-2222-------------|-4444-------------|-5555------------|
|----------------------|----------------------------------|
|----------------------|----------------------------------|
|----------------------|----------------------------------|
|---------12121212-----|-----------------14141414---------|
|-----8888--------8888-|---------10101010--------10101010-|
|-8888-----------------|-10101010-------------------------|
|----------------------------------|-------------------------|
|----------------------------------|-------------------------|
|----------------------------------|-------------------------|
|-----------------15151515---------|-16-16-16-16-16-16-16-16-|
|---------12121212--------12121212-|-17-17-17-17-17-17-17-17-|
|-12121212-------------------------|-16-16-16-16-16-16-16-16-|
|-------------------------|-------------------------|
|-------------------------|-------------------------|
|-15-15-15-15-15-15-15-15-|-14-14-14-14-14-14-14-14-|
|-x--x--x--x--x--x--x--x--|-x--x--x--x--x--x--x--x--|
|-13-13-13-13-13-13-13-13-|-12-12-12-12-12-12-12-12-|
|-------------------------|-------------------------|
|-----------------------|-----------------|x4
|-----------------------|-----------------|
|-12-12-12-12----9-10-9-|-7-7-7-7-7-7-7-7-|
|-x--x--x--x-----x-x--x-|-x-x-x-x-x-x-x-x-|
|-10-10-10-10----7-8--7-|-5-5-5-5-5-5-5-5-|
|-----------------------|-----------------|
|-----------------|-----------------|-----------------|-----------------|
|-----------------|-----------------|-----------------|-----------------|
|-3-3-3-3-3-3-3-3-|-3-3-3-3-3-3-3-3-|-5-5-5-5-5-5-5-5-|-5-5-5-5-5-5-5-5-|
|-3-3-3-3-3-3-3-3-|-3-3-3-3-3-3-3-3-|-5-5-5-5-5-5-5-5-|-5-5-5-5-5-5-5-5-|
|-1-1-1-1-1-1-1-1-|-1-1-1-1-1-1-1-1-|-3-3-3-3-3-3-3-3-|-3-3-3-3-3-3-3-3-|
|-----------------|-----------------|-----------------|-----------------|
|-10-10/12-12\10-10/15-|-15\14-14\12-12\10-10/12-|-12\8----8---8/12\8-|
|----------------------|-------------------------|--------------------|
|----------------------|-------------------------|--------------------|
|----------------------|-------------------------|--------------------|
|----------------------|-------------------------|--------------------|
|----------------------|-------------------------|--------------------|
|-(8)-8-8\7-7h8p7-5---|---10-10/12-12\10-10/15-|-15\14-14/15-15/17-17/20-|
|-------------------8-|-7----------------------|-------------------------|
|---------------------|------------------------|-------------------------|
|---------------------|------------------------|-------------------------|
|---------------------|------------------------|-------------------------|
|---------------------|------------------------|-------------------------|
|-20tr-----20-17------|-------20-----------------|-----------------------|
|-----------------20^-|-(20^)----(20^)~~~~~(20)\-|-----15^-------(15^)tr-|
|---------------------|--------------------------|---x-------------------|
|---------------------|--------------------------|-x---------------------|
|---------------------|--------------------------|-----------------------|
|---------------------|--------------------------|-----------------------|
|--------------------|-----------------------------|--------------------|
|--------------------|-----------------------------|--------------------|
|-14\11^-11^-11^-11^-|-(11)------------------------|--------------------|
|--------------------|----------(Pick slide)--<7>--|-8^-----(8^)------8-|
|--------------------|----------(Pick Slide)-------|----------------8---|
|--------------------|-----------------------------|--------------------|
|-------------------------------|----------------------------------|
|-------------------------------|----------------------------------|
|-----------------------------9-|-9^-------7-9/|14--12-11----------|
|-10^--10^-10^-10^----(10)-10---|-------------------------12-(12)\-|
|-------------------------------|----------------------------------|
|-------------------------------|----------------------------------|
|--------------------------|------------------------------|
|------------11^---(11)----|-------------13^--(13^)--(13)-|
|---------10---------------|----------12------------------|
|-8-10/12------------------|-10-12/14---------------------|
|-----------------------10-|------------------------------|
|--------------------------|------------------------------|
|------------------------|-----------------------------------------|
|-13^tr-----13-13-(13)^--|-(13)p12p10------------------------------|
|------------------------|------------13p12p10tr-------(10)\-15-15-|
|------------------------|-----------------------------------------|
|------------------------|-----------------------------------------|
|------------------------|-----------------------------------------|
|-15^--15^-15^-15^-15^----(15)-------|-18^---18^-18^-18^-18^---(18)\-------|
|------------------------------------|-------------------------------10-10-|
|------------------------------15-15-|-------------------------------------|
|------------------------------------|-------------------------------------|
|------------------------------------|-------------------------------------|
|------------------------------------|-------------------------------------|
|-----------------|--------------|-----------------|-----------------|x2
|-----------------|--------------|-----------------|-----------------|
|-7-----------7---|--------------|-----------------|-----------------|
|-7-6-5-3-0-3-7-6-|-5-3-0-3---8/-|-3-3-3-3-3-3-3-3-|-3-3-3-3-3-3-3-3-|
|-5-6-5-3-0-3-5-6-|-5-3-0-3---8/-|-3-3-3-3-3-3-3-3-|-3-3-3-3-3-3-3-3-|
|---6-5-3-0-3---6-|-5-3-0-3---8/-|-3-3-3-3-3-3-3-3-|-3-3-3-3-3-3-3-3-|
|-----------------|-----------------|-----------------|-----------------|
|-----------------|-----------------|-----------------|-----------------|
|-----------------|-----------------|-3-3-3-3-3-3-3-3-|-3-3-3-3-3-3-3-3-|
|-1-1-1-1-1-1-1-1-|-1-1-1-1-1-1-1-1-|-3-3-3-3-3-3-3-3-|-3-3-3-3-3-3-3-3-|
|-1-1-1-1-1-1-1-1-|-1-1-1-1-1-1-1-1-|-1-1-1-1-1-1-1-1-|-1-1-1-1-1-1-1-1-|
|-1-1-1-1-1-1-1-1-|-1-1-1-1-1-1-1-1-|-----------------|-----------------|
|-----------------|-----------------|-----------------|-----------------|
|-----------------|-----------------|-----------------|-----------------|
|-----------------|-----------------|-----------------|-3-3-3-3-3-3-3-3-|
|-3-3-3-3-3-3-3-3-|-3-3-3-3-3-3-3-3-|-1-1-1-1-1-1-1-1-|-3-3-3-3-3-3-3-3-|
|-3-3-3-3-3-3-3-3-|-3-3-3-3-3-3-3-3-|-1-1-1-1-1-1-1-1-|-1-1-1-1-1-1-1-1-|
|-3-3-3-3-3-3-3-3-|-3-3-3-3-3-3-3-3-|-1-1-1-1-1-1-1-1-|-----------------|

 A
|-------------------------------10-13-|-12tr----(12)\-----12-13-13-/15-15-|
|----------------------10-11-13-------|-----------------------------------|
|12^tr------(12)-12-12----------------|---------------/14-----------------|
|-------------------------------------|-----------------------------------|
|-------------------------------------|-----------------------------------|
|-------------------------------------|-----------------------------------|

 Bb
|-15tr-------------------/15-15-17-|-18---------------------------------&
|----------18-17-18-(18)\----------|----17-15----18-15------------------&
|----------------------------------|----------15-------15----17-15------&
|----------------------------------|----------------------15-------15---&
|----------------------------------|----------------------------------15&
|----------------------------------|------------------------------------&

 C
&-------------|------------------------------|----17-18-20tr------20\-|
&-------------|---------------------17----17-|-18---------------------|
&-------------|------------------15----15----|------------------------|
&-17-15-------|------------14-17-------------|------------------------|
&-------15-16-|-17^---(17)-------------------|------------------------|
&-------------|------------------------------|------------------------|

 DAbGFG
|------------------------------------------|------------------------------&
|-13^tr------13----------------------------|------------------------------&
|---------------13-12----------12-10-------|----------10-------12-10-12-15&
|---------------------13-10----------12-10-|-------------12-10------------&
|---------------------------11-------------|-13-10-12---------------------&
|------------------------------------------|------------------------------&

 Ab
&----15-16----------|
&-15-------16-11-12-|
&-------------------|
&-------------------|
&-------------------|
&-------------------|


Bridge 3:
|-----------------|-----------------|-----------------|-----------------|x2
|-----------------|-----------------|-----------------|-----------------|
|-----------------|-----------------|-----------------|-----------------|
|-0-0-0-0-0-0-0-0-|-0-0-0-0-0-0-0-0-|-1-1-1-1-1-1-1-1-|-1-1-1-1-1-1-1-1-|
|-0-0-0-0-0-0-0-0-|-0-0-0-0-0-0-0-0-|-1-1-1-1-1-1-1-1-|-1-1-1-1-1-1-1-1-|
|-0-0-0-0-0-0-0-0-|-0-0-0-0-0-0-0-0-|-1-1-1-1-1-1-1-1-|-1-1-1-1-1-1-1-1-|


Guitar 2 Plays Chords
Guitar 1
 F
|---------|--------------|-----------|-------------|--------|----------/17-|
|---------|--------------|-16^tr-----|--------(16)-|-20^tr--|-----(20)-----|
|-14^-----|--------(14)--|-----------|-------------|--------|--------------|
|---------|--------------|-----------|-------------|--------|--------------|
|---------|--------------|-----------|-------------|--------|--------------|
|---------|--------------|-----------|-------------|--------|--------------|

 D
|-18^tr------|-----------------|
|------------|-------x---------|
|------------|------------/17--|
|------------|-----------------|
|------------|-----------------|
|------------|-----------------|


Interlude 3:
Guitar 1
|-----------------|---------17181920|
|-----------------|-----------------|
|-7-----------7---|-----------------|
|-7-6-5-3-0-3-7-6-|-5-3-0-3-1-1-1-1-|
|-5-6-5-3-0-3-5-6-|-5-3-0-3-1-1-1-1-|
|---6-5-3-0-3---6-|-5-3-0-3-1-1-1-1-|

pm . . . .

Last Chorus:

|---------|---------|---------|---------|---------|---------|---------|
|---------|---------|---------|---------|---------|---------|---------|
|---------|---------|---------|---------|---------|---------|---------|
|-0-2-3-8-|-8-8-8-8-|-5-3-5-5-|-5-5-5-5-|-0-2-3-3-|-3-3-3-3-|-5-3-5-5-|
|-0-3-3-8-|-8-8-8-8-|-5-3-3-3-|-3-3-3-3-|-0-3-3-3-|-3-3-3-3-|-5-3-3-3-|
|-0-2-3-8-|-8-8-8-8-|-5-3-2-2-|-2-2-2-2-|-0-2-3-3-|-3-3-3-3-|-5-3-2-2-|
|---------|------------|-----------|-------------|------------|
|---------|o-----------|-----------|-------------|-----------o|
|---------|------------|-3-3-------|-------------|------------|
|-5-5-5-5-|--3-3--2-22-|-3-3--3-33-|--8--8--7-77-|-5-5--3-33--|
|-3-3-3-3-|o-5-5--3-33-|-1-1--3-33-|-10-10--8-88-|-7-7--5-55-o|
|-2-2-2-2-|------------|------3-33-|-------------|------------|
|------------|-----------|-------------|------------|
|o-----------|-----------|-------------|-----------o|
|------------|-3-3-------|-------------|------------|
|--3-3--2-22-|-3-3--3-33-|--8--8--7-77-|-5-5--3-33--|
|o-5-5--3-33-|-1-1--3-33-|-10-10--8-88-|-7-7--5-55-o|
|------------|------3-33-|-------------|------------|


Outro

|-----------------|--------------|-----------------|-----------------|
|-----------------|--------------|-----------------|-----------------|
|-7-----------7---|--------------|-7-----------7---|-----------------|
|-7-6-5-3-0-3-7-6-|-5-3-0-3---8/-|-7-6-5-3-0-3-7-6-|-5-3-0-3-2-2-2-2-|
|-5-6-5-3-0-3-5-6-|-5-3-0-3---8/-|-5-6-5-3-0-3-5-6-|-5-3-0-3-2-2-2-2-|
|---6-5-3-0-3---6-|-5-3-0-3---8/-|---6-5-3-0-3---6-|-5-3-0-3---------|

pm . . . .
Guitar 1

|-----------------|--------------|-----------------|---------17181920|
|-----------------|--------------|-----------------|-----------------|
|-7-----------7---|--------------|-7-----------7---|-----------------|
|-7-6-5-3-0-3-7-6-|-5-3-0-3-5^%--|-7-6-5-3-0-3-7-6-|-5-3-0-3-x-x-x-x-|
|-5-6-5-3-0-3-5-6-|-5-3-0-3------|-5-6-5-3-0-3-5-6-|-5-3-0-3-x-x-x-x-|
|---6-5-3-0-3---6-|-5-3-0-3------|---6-5-3-0-3---6-|-5-3-0-3-x-x-x-x-|


Have Fun!
I'm Sure its 99% right
I missed some lead parts but this should get you going.

END

+--------------------------------------------------------------------------+

| This file is the author's own work and represents their interpretation |
| of the song. You may only use this file for private study, scholarship, |
| or research. |
+--------------------------------------------------------------------------+


Ultimate-Guitar.Com © 2005


A Ab Bb C D F G
variations - click chord images
Transpose chords:
Tuning:
Cool service:
View: Size:
A  A  A
Rating:
Layout:
  • Currently 0/5 Stars.
  • 1
  • 2
  • 3
  • 4
  • 5
 
Accuracy:
  • Currently 0/5 Stars.
  • 1
  • 2
  • 3
  • 4
  • 5
 
click stars to rate
Chordie recommends:
Learn how to play guitar at JamPlay.com
Songbook:
Login to add this song to your songbook
Support the artist
Preview/buy this song
MSN Music
Why this non-profit ad?

 
login to add comments/video/corrections