"yes"; ?> Every Night by Paul McCartney - guitar chords, guitar tabs and lyrics - chordie

Every Night

Paul McCartney

---------------------------------------------------------

---------------------------------------------------------
Ooh-ooh-ooh-ooh-ooh-ooh-ooh-ooh-ooh,
Ooh-ooh-ooh-ooh-ooh-ooh-ooh-ooh-ooh,
Ooh-ooh-ooh-ooh-ooh-ooh-ooh-ooh-ooh,
Ooh-ooh-ooh-ooh-ooh-ooh-ooh-ooh-ooh, momma,

 E7
e|-------- ----4--- ----4--- 4---4---|-------- 4---4--- -------- 4---4---|
B|---------3---3--------3----3---3---|---------3---3-------------3---3---|
G|4---4----4---4----4---4----4---4---|4---4----4---4----4---4----4---4---|
D|2---2----2--------2---2----2---2---|2---2----2---2----2---2----2---2---|
A|2---2----2--------2--------2-------|2---2----2--------2---2----2-------|
E|0---0----0--------0--------0-------|0---0----0--------0---0----0-------|
e|----4--- ----4--- ----4--- --------|-------- 4---4--- -------- 4---4---|
B|----3--------3--------3----3---3---|---------3---3-------------3---3---|
G|4---4----4---4----4---4----4---4---|4---4----4---4----4---4----4---4---|
D|2---2----2---2----2---2----2---2---|2---2----2---2----2---2----2---2---|
A|2---2----2--------2---2----2-------|2---2----2--------2---2----2-------|
E|0---0----0--------0---0----0-------|0---0----0--------0---0----0-------|


00:10

e|----4--- ----4--- 4------- 4-------|----4--- 4---4--- 4---4--- 4---4---|
B|----3--------3----3--------3-------|----3----3---3----3---3----3---3---|
G|4---4----4---4----4--------4---4---|4---4----4---4----4---4----4---4---|
D|2---2----2---2----2--------2---2---|2---2----2---2----2---2----2---2---|
A|2---2----2---2----2--------2---2---|2---2----2---2----2---2----2---2---|
E|0---0----0---0----0--------0---0---|0---0----0---0----0---0----0---0---|

Ev'ry night I just go out, get out of my
wanna

 E11
e|2---2--- 2---2--- ----2--- 2---2---|
B|3---3----3---3--------3----3---3---|
G|2---2----2---2--------2----2---2---|
D|2---2----2---2--------2----2---2---|
A|2--------2-----------------2-------|
E|0--------0-----------------0-------|

head.
e|-------- -------- ----7--- --------|
B|------------------7--------7-------|
G|-------------7-----------------7---|
D|---------7-------------------------|
A|----7------------------------------|
E|-----------------------------------|
e|-------- -------- 7--10--- 7-------|
B|-------------7-----------------7---|
G|---------7-------------------------|
D|----9------------------------------|
A|-----------------------------------|
E|-----------------------------------|


 E7
e|4---4--- 4------- 4------- 4---4---|4---4--- 4---4--- 4---4--- 4-------|
B|3---3----3--------3--------3---3---|3---3----3---3----3---3----3-------|
G|4---4----4--------4--------4---4---|4---4----4---4----4---4----4-------|
D|2---2----2--------2--------2---2---|2---2----2---2----2---2----2-------|
A|2---2----2--------2--------2---2---|2---2----2---2----2---2----2-------|
E|0---0----0--------0--------0---0---|0---0----0---0----0---0----0-------|

Ev'ry day I don't get up, get out of my
wanna
e|--------|
B|--------|
G|--------|
D|----9---|
A|--------|
E|--------|


 E11
e|2---2--- 2---2--- ----2--- 2---2---|
B|3---3----3---3--------3----3---3---|
G|2---2----2---2--------2----2---2---|
D|2---2----2---2--------2----2---2---|
A|2--------2-----------------2-------|
E|0--------0-----------------0-------|

bed.
e|-------- -------- ----7--- --------|
B|------------------7--------7-------|
G|-------------7-----------------7---|
D|---------7-------------------------|
A|----7------------------------------|
E|-----------------------------------|
e|-------- -------- 7--10--- 7-------|
B|-------------7-----------------7---|
G|---------7-------------------------|
D|----9------------------------------|
A|-----------------------------------|
E|-----------------------------------|


00:25
 AF#mBmF#7

e|0---0--- 0------- 2---2--- 2---2---|2---2--- ----2--- 2---2--- 2-------|
B|2---2----2--------2---2----2---3---|3---3--------3----3---3----3---5---|
G|2---2----2--------2---2----2---4---|4---4--------4----4---4----4---3---|
D|2---2----2--------4---4----4---4---|4---4----4---4----4---4----4---2---|
A|0---0----0--------4---4----4-------|2---2----2---2----2---2----2---4---|
E|------------------2---2----2-------|-----------------------------------|

Ev'ry night I want to play out
e|0---0--- 0------- 2---2--- 2-------|2---2--- ----2--- 2---2--- 2-------|
B|2---2----2--------2---2----2---3---|3---3--------3----3---3----3---5---|
G|2---2----2--------2---2----2---4---|4---4--------4----4---4----4---3---|
D|2---2----2--------4---4----4---4---|4---4--------4----4---4----4---2---|
A|0---0----0--------4---4----4-------|2---2--------2----2---2----2-------|
E|------------------2---2----2-------|-----------------------------------|


 B
e|2---2--- ----2--- 2---2--- 2-------|7------- -------- -------- --------|
B|5---5--------5----5---5----5-------|7----------------------------------|
G|3---3----3---3----3---3----3-------|8----------------------------------|
D|2---2----2---2----2---2----2-------|9----------------------------------|
A|4---4----4---4----4---4----4-------|9----------------------------------|
E|2---2----2---2----2---2----2-------|7------------5------2/4--------2---|

and ev'ry day I wanna do ooh ooh ooh
e|2---2--- ----2--- ----2--- 2-------|7------- -------- -------- --------|
B|5---5--------5--------5----5-------|7----------------------------------|
G|3---3--------3--------3----3-------|8----------------------------------|
D|2---2--------2--------2----2-------|9----------------------------------|
A|4---4--------4--------4----4-------|9----------------------------------|
E|2---2--------2--------2----2-------|7----------------------------------|


 E
e|0------- 0------- 0------- ----0---|0---0--- 0---0--- 0---0--- 0-------|
B|0--------0--------0------------0---|0---0----0---0----0---0----0-------|
G|1--------1--------1------------1---|1---1----1---1----1---1----1-------|
D|2--------2--------2------------2---|2---2----2---2----2---2----2-------|
A|2--------2--------2------------2---|2---2----2---2----2---2----2-------|
E|0--------0--------0------------0---|0---0----0---0----0---0----0-------|

ooh. But tonight I just wanna in and be with you
stay
e|0---0--- ----0--- 0---0--- ----0---|0------- 0---0--- 0------- 0-------|
B|0---0--------0----0---0--------0---|0--------0---0----0--------0-------|
G|1---1--------1----1---1--------1---|1--------1---1----1--------1-------|
D|2---2--------2----2---2--------2---|2--------2---2----2--------2-------|
A|2---2--------2----2---2--------2---|2--------2---2----2--------2-------|
E|0---0--------0----0---0--------0---|0--------0---0----0--------0-------|


00:41
 F#mB7
e|2---2--- 2---2--- 2---2--- 2---2---|2---2--- 2------- -------- --------|
B|2---2----2---2----2---2----2---2---|0---0----0-------------------------|
G|2---2----2---2----2---2----2---2---|2---2----2-------------------------|
D|4---4----4---4----4---4----4---2---|1---1----1-------------------------|
A|4---4----4---4----4---4----4---4---|2---2----2-------------------------|
E|2---2----2---2----2---2----2---2---|-----------------------------------|

and be with you
e|----9--- 5------- -------- --------|-------- -------- -------- --------|
B|-------------7---------------------|-----------------------------------|
G|------------------6--------6-7/9---|8----------------------------------|
D|----------------------7------------|-----------------------------------|
A|-----------------------------------|-----------------------------------|
E|-----------------------------------|-----------------------------------|
e|----5--- -------- -------- --------|-------- -------- -------- --------|
B|---------7-------------------------|-----------------------------------|
G|-------------6-------------2-4/6---|4----------------------------------|
D|------------------7--4------------|------------------------------------|
A|-----------------------------------|-----------------------------------|
E|-----------------------------------|-----------------------------------|


 E

e|--2/4--- 4---4--- 4---4--- 4---4---|----4--- 4---4--- 4---4--- 4---4---|
B|----0----0---0----0---0----0---0---|----0----0---0----0---0----0---0---|
G|--2/4----4---4----4---4----4---4---|----4--- 4---4--- 4---4--- 4---4---|
D|-----------------------------------|-----------------------------------|
A|-----------------------------------|-----------------------------------|
E|0----------------------------------|-----------------------------------|


00:51
 AA6E
e|0---0--- 0---0--- 0---0--- 0-------|0------- 0---2--- 2---2--- 2---0---|
B|0---0----0---0----0---0----0-------|2--------2---2----2---2----2---0---|
G|1---1----1---1----1---1----1-------|2--------2---2----2---2----2---1---|
D|2---2----2---2----2---2----2-------|2--------2---2----2---2----2---2---|
A|2---2----2---2----2---2----2-------|0--------0---0----0---0----0---2---|
E|0---0----0---0----0---0----0-------|-----------------------------------|

Ooh ooh ooh ooh ooh ooh ooh ooh ooh,
e|0------- 0---0-0- 0---0--- 0---0---|0---0--- 0-0-0--- 0---0--- 0---0---|
B|0--------0---0-0--0---0----0---0---|2---2----2-2-2----2---2----2---0---|
G|1--------1---1-1--1---1----1---1---|2---2----2-2-2----2---2----2---1---|
D|2--------2---2-2--2---2----2---2---|2---2----2-2-2----2---2----2---2---|
A|2--------2---2-2--2---2----2---2---|0---0----0-0-0----0---0----0---2---|
E|0--------0---0-0--0---0----0---0---|-----------------------------------|


 B7
e|0---0--- 0---0--- 0------- 0-------|2------- 2---2--- 2---2--- 2-------|
B|0---0----0---0----0--------0-------|0--------0---0----0---0----0-------|
G|1---1----1---1----1--------1-------|2--------2---2----2---2----2-------|
D|2---2----2---2----2--------2-------|1--------1---1----1---1----1-------|
A|2---2----2---2----2--------2-------|2--------2---2----2---2----2-------|
E|0---0----0---0----0--------0-------|-----------------------------------|

Ooh ooh Ooh ooh
e|----0--- 0---0-0- ----0--- 0---0-0-|----2--- ----2--- --2-2--- ----2---|
B|----0----0---0-0------0----0---0-0-|----0--------0------0-0--------0---|
G|----1----1---1-1------1----1---1-1-|----2--------2------2-2--------2---|
D|----2----2---2-2------2----2---2-2-|----1--------1------1-1--------1---|
A|----2----2---2-2------2----2---2-2-|----2--------2------2-2--------2---|
E|----0----0---0-0------0----0---0-0-|-----------------------------------|


 EAA6E
e|0---0--- ----0--- 0---0--- --------|0---0--- 0---2--- 2------- 2---0---|
B|0---0----0---0----0---0----0-------|2---2----2---2----2--------2---0---|
G|1---1----1---1----1---1----1-------|2---2----2---2----2--------2---1---|
D|2---2----2---2----2---2----2-------|2---2----2---2----2--------2---2---|
A|2---2----2---2----2---2----2-------|0---0----0---0----0--------0---2---|
E|0---0----0---0----0---0----0-------|-----------------------------------|

Ooh ooh ooh ooh ooh ooh ooh ooh ooh,
e|----0--- ---0-0-0 0---0-0- 0---0---|0---0-0- 0---0-0- 0-0-0--- ----0---|
B|----0-------0-0-0-0---0-0--0---0---|2---2-2--2---2-2--2-2-2--------2---|
G|----1-------1-1-1-1---1-1--1---1---|2---2-2--2---2-2--2-2-2--------2---|
D|----2-------2-2-2-2---2-2--2---2---|2---2-2--2---2-2--2-2-2--------2---|
A|----2-------2-2-2-2---2-2--2---2---|0---0-0--0---0-0--0-0-0--------0---|
E|----0-------0-0-0-0---0-0--0---0---|-----------------------------------|


 B7
e|0---0--- 0---0--- 0---0--- 0-------|2---2--- 2---2--- 2---2--- 2---2---|
B|0---0----0---0----0---0----0-------|0---0----0---0----0---0----0---0---|
G|1---1----1---1----1---1----1-------|2---2----2---2----2---2----2---2---|
D|2---2----2---2----2---2----2-------|1---1----1---1----1---1----1---1---|
A|2---2----2---2----2---2----2-------|2---2----2---2----2---2----2---2---|
E|0---0----0---0----0---0----0-------|-----------------------------------|

Ooh ooh Ooh ooh
e|----0--- 0---0-0- ----0-0- 0---0---|2---2-2- 2-2--2-2 2---2-2- 2-2-2---|
B|----0----0---0-0------0-0--0---0---|0---0-0--0-0--0-0-0---0-0--0-0-0---|
G|----1----1---1-1------1-1--1---1---|2---2-2--2-2--2-2-2---2-2--2-2-2---|
D|----2----2---2-2------2-2--2---2---|1---1-1--1-1--1-1-1---1-1--1-1-1---|
A|----2----2---2-2------2-2--2---2---|2---2-2--2-2--2-2-2---2-2--2-2-2---|
E|----0----0---0-0------0-0--0---0---|-----------------------------------|
e|-------- 4---4--- -------- 4-------|-------- 4---4--- 4------- ----4---|
B|---------3---3-------------3-------|---------3---3----3------------3---|
G|4---4----4---4----4---4----4-------|4---4----4---4----4---4--------4---|
D|2---2----2---2----2---2----2-------|2---2-----------------2------------|
A|2---2-------------2---2------------|2---2-----------------2------------|
E|0---0-------------0---0------------|0---0-----------------0------------|
e|-------- ----4--- -------- 4------|-------- 4---4--- -------- 4--------|
B|-------------3-------------3------|---------3---3-------------3--------|
G|4---4--------4----4--------4------|4---4----4---4--------4----4--------|
D|2---2--------2----2--------2------|2---2-----------------2----2--------|
A|2---2-------------2----------------|2---2-----------------2------------|
E|0---0-------------0----------------|0---0-----------------0------------|


01:17

e|----4--- ----4--- -------- 4---4---|----4--- ----4--- ----4--- 4-------|
B|----3--------3-------------3---3---|----3--------3--------3----3-------|
G|4---4--------4----4---4----4---4---|4---4--------4----4---4----4-------|
D|2---2--------2----2---2----2---2---|2---2--------2----2---2----2-------|
A|2-----------------2---2------------|2-----------------2----------------|
E|0-----------------0---0------------|0-----------------0----------------|

Ev'ry day I lean lamp post, I'm wasting my time
on a
e|-------- ----4--- -------- 4-------|-------- 4---4--- -------- 4-------|
B|-------------3-------------3-------|---------3---3-------------3-------|
G|4---4--------4--------4----4-------|4---4----4---4--------4----4-------|
D|2---2--------2--------2----2-------|2---2-----------------2----2-------|
A|2---2-----------------2------------|2---2-----------------2------------|
E|0---0-----------------0------------|0---0-----------------0------------|


 E11
e|----2--- 2---2--- 2---2--- 2---2---|
B|----3----3---3----3---3----3---3---|
G|2---2----2---2----2---2----2---2---|
D|2---2----2---2----2---2----2---2---|
A|2----------------------------------|
E|0----------------------------------|
e|-------- -------- ----7--- --------|
B|------------------7--------7-------|
G|-------------7-----------------7---|
D|---------7-------------------------|
A|----7------------------------------|
E|-----------------------------------|
e|-------- -------- 7--10--- 7-------|
B|-------------7-----------------7---|
G|---------7-------------------------|
D|----9------------------------------|
A|-----------------------------------|
E|-----------------------------------|
e|----4--- ----4--- 4------- 4---4---|----4--- 4---4--- ----4--- ----4---|
B|----3--------3----3--------3---3---|----3----3---3--------3--------3---|
G|4---4----4---4----4---4----4---4---|4---4----4---4----4---4--------4---|
D|2---2----2---2----2---2----2---2---|2---2----2---2----2---2--------2---|
A|2--------2------------2------------|2-----------------2----------------|
E|0--------0------------0------------|0-----------------0----------------|

Ev'ry night I lay on a pillow, I'm resting my mind
e|----4--- ----4--- 4------- 4-------|----4--- 4---4--- -------- 4-----4-|
B|----2--------3----3--------3-------|----3----3---3-------------3-----3-|
G|4---4----4---4----4--------4-------|4---4----4---4--------4----4-----4-|
D|2---2----2---2----2--------2-------|2---2----2---2--------2----2-----2-|
A|2--------2-------------------------|2---------------------2------------|
E|0--------0-------------------------|0---------------------0------------|
e|----2--- 2---2--- 2---2--- 2-------|
B|----3----3---3----3---3----3-------|
G|2---2----2---2----2---2----2-------|
D|2---2----2---2----2---2----2-------|
A|2----------------------------------|
E|0----------------------------------|
e|-------- -------- ----7--- --------|
B|------------------7--------7-------|
G|-------------7-----------------7---|
D|---------7-------------------------|
A|----7------------------------------|
E|-----------------------------------|
e|-------- -------- 7--10--- 7-------|
B|-------------7-----------------7---|
G|---------7-------------------------|
D|----9------------------------------|
A|-----------------------------------|
E|-----------------------------------|


01:31

e|0---0--- 0------- 2---2--- 2-------|2---2--- 2---2--- 2---2--- 2-------|
B|2---2----2--------2---2----2---2---|3---3----3---3----3---3----3---2---|
G|2---2----2--------2---2----2---2---|4---4----4---4----4---4----4---2---|
D|2---2----2--------4---4----4---2---|4---4----4---4----4---4----4---2---|
A|0---0----0--------4---4----4-------|2---2----2---2----2---2----2-------|
E|------------------2---2----2-------|-----------------------------------|

Ev'ry morning brings a new day
e|0---0--- 0------- 2---2--- 2-------|2---2--- ----2--- 2---2--- 2---2-2-|
B|2---2----2---0----2---2----2-------|3---3--------3----3---3----3---3-3-|
G|2---2----2---0----2---2----2-------|4---4--------4----4---4----4---4-4-|
D|2---2----2---0----4---4----4-------|4---4--------4----4---4----4---4-4-|
A|0---0----0--------4---4----4-------|2---2--------2----2---2----2---2-2-|
E|------------------2---2----2-------|-----------------------------------|
e|2---2--- 2------- 2------- 2-------|7------- -------- -------- --------|
B|5---5----5--------5--------5-------|7----------------------------------|
G|3---3----3--------3--------3-------|8----------------------------------|
D|2---2----2--------2--------2-------|9----------------------------------|
A|4---4----4--------4--------4-------|9----------------------------------|
E|2---2----2--------2--------2-------|7------------5--------4--------2---|

and ev'ry night that day is through
e|2---2--- 2---2--- 2---2--- 2-2--2-2|7------- -------- -------- --------|
B|5---5----5---5----5---5----5-5--5-5|7----------------------------------|
G|3---3----3---3----3---3----3-3--3-3|8----------------------------------|
D|2---2----2---2----2---2----2-2--2-2|9----------------------------------|
A|4---4----4---4----4---4----4-4--4-4|9----------------------------------|
E|2---2----2---2----2---2----2-2--2-2|7----------------------------------|
e|0---0--- 0------- 0------- 0-------|0------- 0---0--- 0---0--- 0-------|
B|0---0----0--------0--------0-------|0--------0---0----0---0----0-------|
G|1---1----1--------1--------1-------|1--------1---1----1---1----1-------|
D|2---2----2--------2--------2-------|2--------2---2----2---2----2-------|
A|2---2----2--------2--------2-------|2--------2---2----2---2----2-------|
E|0---0----0--------0--------0-------|0--------0---0----0---0----0-------|

But tonight I just wanna in and be with you
stay
e|0---0--- ----0--- 0---0--- ----0---|----0--- ----0--- 0---0--- 0-------|
B|0---0--------0----0---0--------0---|----0--------0----0---0----0-------|
G|1---1--------1----1---1--------1---|----1--------1----1---1----1-------|
D|2---2--------2----2---2--------2---|----2--------2----2---2----2-------|
A|2---2--------2----2---2--------2---|----2--------2----2---2----2-------|
E|0---0--------0----0---0--------0---|----0--------0----0---0----0-------|
e|2---2--- 2---2--- 2---2--- 2---2---|2---2--- 2------- -------- --------|
B|2---2----2---2----2---2----2---2---|0---0----0-------------------------|
G|2---2----2---2----2---2----2---2---|2---2----2-------------------------|
D|4---4----4---4----4---4----4---2---|1---1----1-------------------------|
A|4---4----4---4----4---4----4---4---|2---2----2-------------------------|
E|2---2----2---2----2---2----2---2---|-----------------------------------|

and be with you
e|----9--- 5------- -------- --------|-------- -------- -------- --------|
B|-------------7---------------------|-----------------------------------|
G|------------------6--------6-7/9---|8----------------------------------|
D|----------------------7------------|-----------------------------------|
A|-----------------------------------|-----------------------------------|
E|-----------------------------------|-----------------------------------|
e|----5--- -------- -------- --------|-------- -------- -------- --------|
B|---------7-------------------------|-----------------------------------|
G|-------------6-------------2-4/6---|4----------------------------------|
D|------------------7--4------------|------------------------------------|
A|-----------------------------------|-----------------------------------|
E|-----------------------------------|-----------------------------------|
e|--2/4--- 4---4--- 4---4--- 4---4---|----4--- 4---4--- 4---4--- 4---4---|
B|----0----0---0----0---0----0---0---|----0----0---0----0---0----0---0---|
G|--2/4----4---4----4---4----4---4---|----4--- 4---4--- 4---4--- 4---4---|
D|-----------------------------------|-----------------------------------|
A|-----------------------------------|-----------------------------------|
E|0----------------------------------|-----------------------------------|


01:57

e|0---0--- 0---0--- 0---0--- 0-------|0---0--- 0---2--- 2---2--- 2---0---|
B|0---0----0---0----0---0----0-------|2---2----2---2----2---2----2---0---|
G|1---1----1---1----1---1----1-------|2---2----2---2----2---2----2---1---|
D|2---2----2---2----2---2----2-------|2---2----2---2----2---2----2---2---|
A|2---2----2---2----2---2----2-------|0---0----0---0----0---0----0---2---|
E|0---0----0---0----0---0----0-------|-----------------------------------|

Ooh ooh ooh ooh ooh ooh ooh ooh ooh,
e|0---0--- 0---0--- ----0--- ----0---|----0-0- 0---0--- ----0-0- 0---0-0-|
B|0---0----0---0--------0--------0---|----2-2--2---2--------2-2--2---2-0-|
G|1---1----1---1--------1--------1---|----2-2--2---2--------2-2--2---2-1-|
D|2---2----2---2--------2--------2---|----2-2--2---2--------2-2--2---2-2-|
A|2---2----2---2--------2--------2---|----0-0--0---0--------0-0--0---0-2-|
E|0---0----0---0--------0--------0---|-----------------------------------|
e|0---0--- 0---0--- 0---0--- 0-------|2---2--- 2---2--- 2---2--- 2---0---|
B|0---0----0---0----0---0----0-------|0---0----0---0----0---0----0---0---|
G|1---1----1---1----1---1----1-------|2---2----2---2----2---2----2---1---|
D|2---2----2---2----2---2----2-------|1---1----1---1----1---1----1---2---|
A|2---2----2---2----2---2----2-------|2---2----2---2----2---2----2---2---|
E|0---0----0---0----0---0----0-------|-----------------------------------|

Ooh ooh Ooh ooh Believe me,
momma.
e|0---0--- ----0--- ----0-0- 0---0-0-|0---0--- ----0--- ----2--- ----0---|
B|0---0--------0--------0-0--0---0-0-|2---2--------0--------0--------0---|
G|1---1--------1--------1-1--1---1-1-|2---2--------2--------2--------1---|
D|2---2--------2--------2-2--2---2-2-|1---1--------1--------1--------2---|
A|2---2--------2--------2-2--2---2-2-|2---2--------2--------2--------2---|
E|0---0--------0--------0-0--0---0-0-|-----------------------------------|

 B11B7

e|0---0--- 0---0--- 0---0--- ----0---|0---0--- ----2--- ----2--- 2---0---|
B|0---0----0---0----0---0--------0---|2---2--------2--------2----2---0---|
G|1---1----1---1----1---1--------1---|2---2--------2--------2----2---1---|
D|2---2----2---2----2---2--------2---|2---2--------2--------2----2---2---|
A|2---2----2---2----2---2--------2---|0---0--------0--------0----0---2---|
E|0---0----0---0----0---0--------0---|-----------------------------------|

Ooh ooh ooh ooohooooooooooooooooooooooooohuuuh
e|0---0--- ---0---- ----0--- --0-0---|----0-0- 0---0--- 0---0--- ----0-0-|
B|0---0-------0---------0------0-0---|----2-2--2---2----2---2--------2-0-|
G|1---1-------1---------1------1-1---|----2-2--2---2----2---2--------2-1-|
D|2---2-------2---------2------2-2---|----2-2--2---2----2---2--------2-2-|
A|2---2-------2---------2------2-2---|----0-0--0---0----0---0--------0-2-|
E|0---0-------0---------0------0-0---|-----------------------------------|
e|0---0--- 0---0--- 0---0--- 0-------|2---2--- 2---2--- 2---2--- 2---0---|
B|0---0----0---0----0---0----0-------|0---0----0---0----0---0----0---0---|
G|1---1----1---1----1---1----1-------|2---2----2---2----2---2----2---1---|
D|2---2----2---2----2---2----2-------|1---1----1---1----1---1----1---2---|
A|2---2----2---2----2---2----2-------|2---2----2---2----2---2----2---2---|
E|0---0----0---0----0---0----0-------|-----------------------------------|

Ooh hooh Ooh ooh
e|0---0--- 0---0--- 0---0-0- 0---0---|0---0--- ----0--- ----2--- 2-2-2---|
B|0---0----0---0----0---0-0--0---0---|2---2--------0--------0----0-0-0---|
G|1---1----1---1----1---1-1--1---1---|2---2--------2--------2----2-2-2---|
D|2---2----2---2----2---2-2--2---2---|1---1--------1--------1----1-1-1---|
A|2---2----2---2----2---2-2--2---2---|2---2--------2--------2----2-2-2---|
E|0---0----0---0----0---0-0--0---0---|-----------------------------------|

 B11B7

02:17

e|0---0--- 0---0--- 0---0--- 0---0---|0---0--- 0---2--- 2---2--- 2---0---|
B|0---0----0---0----0---0----0---0---|2---2----2---2----2---2----2---0---|
G|1---1----1---1----1---1----1---1---|2---2----2---2----2---2----2---1---|
D|2---2----2---2----2---2----2---2---|2---2----2---2----2---2----2---2---|
A|2---2----2---2----2---2----2---2---|0---0----0---0----0---0----0---2---|
E|0---0----0---0----0---0----0---0---|-----------------------------------|

Ooh ooh ooh ooh ooh ooh ooh ooh ooh,
e|0------- ----0--- ----0--- 0-0-0---|0---0-0- 0----0-- 0---0--- 0-0-0-0-|
B|0------------0--------0----0-0-0---|2---2-2--2----2---2---2----2-2-2-0-|
G|1------------1--------1----1-1-1---|2---2-2--2----2---2---2----2-2-2-1-|
D|2------------2--------2----2-2-2---|2---2-2--2----2---2---2----2-2-2-2-|
A|2------------2--------2----2-2-2---|0---0-0--0----0---0---0----0-0-2-2-|
E-0------------0--------0----0-0-0---|-----------------------------------|


..................................Fade.................................

e|0---0--- 0---0--- 0---0--- 0-------|2---2--- 2---2--- 2---2--- 0---0---|
B|0---0----0---0----0---0----0-------|0---0----0---0----0---0----0---0---|
G|1---1----1---1----1---1----1-------|2---2----2---2----2---2----2---2---|
D|2---2----2---2----2---2----2-------|1---1----1---1----1---1----1---1---|
A|2---2----2---2----2---2----2-------|2---2----2---2----2---2----2---2---|
E|0---0----0---0----0---0----0-------|-----------------------------------|

Ooh ooh Ooh ooh
e|0---0--- 0---0--- 0---0--- 0-0--0-0|2---2--- 2---2-2- 2---2--- 2---2---|
B|0---0----0---0----0---0----0-0--0-0|0---0----0---0-0--0---0----0---0---|
G|1---1----1---1----1---1----1-1--1-1|2---2----2---2-2--2---2----2---2---|
D|2---2----2---2----2---2----2-2--2-2|1---1----1---1-1--1---1----1---1---|
A|2---2----2---2----2---2----2-2--2-2|2---2----2---2-2--2---2----2---2---|
E|0---0----0---0----0---0----0-0--0-0|-----------------------------------|


.......................................................................

e|0---0--- 0---0--- 0---0--- 0---0---|
B|0---0----0---0----0---0----0---0---|
G|1---1----1---1----1---1----1---1---|
D|2---2----2---2----2---2----2---2---|
A|2---2----2---2----2---2----2---2---|
E|0---0---

A A6 B B11 B7 Bm E E11 E7 F#7 F#m
variations - click chord images
Transpose chords:
Tuning:
Cool service:
View: Size:
A  A  A
Rating:
Layout:
  • Currently 2/5 Stars.
  • 1
  • 2
  • 3
  • 4
  • 5
 
Accuracy:
  • Currently 2.5/5 Stars.
  • 1
  • 2
  • 3
  • 4
  • 5
 
click stars to rate
Chordie recommends:
Get acoustic guitar lessons and electric guitar lessons at JamPlay.com
Songbook:
Login to add this song to your songbook
Support the artist
Preview/buy this song
MSN Music
Why this non-profit ad?

 
login to add comments/video/corrections