My Love

Paul McCartney

-----------------------------------------------------------------

-----------------------------------------------------------------

..............................................
e|------- ------- 5------ -------|------- ------- ------- -------|
B|-------------------------------|-------------------------------|
G|-------------------------------|-------------------------------|
D|-------------------------------|-------------------------------|
A|-------------------------------|-------------------------------|
E|-------------------------------|-------------------------------|


...............................
e|------- ------- ------- -------|------- ------- ------- -------|
B|-------------------------------|-------------------------------|
G|-------------------------------|-------------------------------|
D|-------------------------------|-------------------------------|
A|-------------------------------|-------------------------------|
E|-------------------------------|-------------------------------|

 Bbmaj7
e|1------ 1------ 1------ 1------|1------ 1------ 1------ 1------|
B|3-------3-------3-------3------|3-------3-------3-------3------|
G|2-------2-------2-------2------|2-------2-------2-------2------|
D|----------------------------3--|----3-------3-------3-------3--|
A|1------------------------------|1------------------------------|
E|-------------------------------|-------------------------------|

And I go away I know heart with
when my can my
stay

 Am7D
e|5------ 5------ 5------ -------|------- ------- --2H3P2 -------|
B|5-------5-------5--------------|------------------------3------|
G|5-------5-------5--------------|----------------2--------------|
D|5-------5-------5-------7-6-5-4|--------4----------------------|
A|-------------------------------|--------5----------------------|
E|5---------------5--------------|-------------------------------|

love, it's It's hands of my
understood in
the
e|------- ------- 5------ 5------|------- ------- ------- -------|
B|----------------5-------5------|-------------------------------|
G|----------------5-------5------|-------------------------------|
D|----------------7-------7------|-------------------------------|
A|----------------7-------7------|-------------------------------|
E|----------------5-------5------|-------------------------------|


 Gm7AmBbmaj7
e|------- ------- ------- -------|------- ------- ------- -------|
B|3-------3-------3-------3---3--|5-------5-------6--------------|
G|3-------3-------3-------3---3--|5-------5-------7--------------|
D|3-------3-------3-------3---3--|7-------7-------7--------------|
A|-------------------------------|-------------------------------|
E|3---------------3--------------|5---------------6--------------|

love, and my love does it good
e|------- ------- 3------ -------|------- ------- ------- -------|
B|----------------3--------HP----|-------------------------------|
G|----------------3-------353--3-|-------------------------------|
D|----------------5-----------5--5/6-----------------------------|
A|----------------5--------------|-------------------------------|
E|----------------3--------------|-------------------------------|


 B/dim
e|------- ------- ------- -------|
B|------6---------6-------6------|
G|--------7-------7-----------7--|
D|----------7-----7---------7----|
A|-------------------------------|
E|7---------------7--------------|

Wo wo
e|------- ------- ----5-- -------|
B|--------------------6---6------|
G|--------------------7-------7--|
D|--------------------7----------|
A|-------------------------------|
E|--------------------7----------|


 FG7sus4G11
e|------- ------- ------- -------|------- ------- ------- --8----|
B|1-----------1-----------1------|3-----------3-----------10-----|
G|2-----------2-----------2------|5-----------5----------10------|
D|3-----------3-----------3------|3-----------3------------------|
A|-------------------------------|-------------------------------|
E|1-----------1-----------1------|3-----------3------------------|     

wo wo wo wo wo wo,
e|------- ----1-- ------- -------|------3 ------- ------- -------|
B|------------1------------------|------3------------------------|
G|------------2------------------|------3------------------------|
D|------------3------------------|------5------------------------|
A|------------3------------------|------5------------------------|
E|------------1------------------|------3------------------------|


 BbF
e|------- ------- ------- -------|------- ------- ------- -------|
B|6-------6---------------6------|1-----------1---1-------1------|
G|7-------7---------------7------|2-----------2---2-------2------|
D|8-------8---------------8------|3-----------3---3-------3------|
A|-------------------------------|-------------------------------|
E|6------------------------------|1---------------1--------------|

my love does it good
e|------- ------- ------- -------|------- ------- ------- -------|
B|-------------------------------|-------------------------------|
G|-------------------------HP----|-------------------------------|
D|--------------------3-5-353----|-------------------------------|
A|-------------3-3/5----------5-\|3---------------3-------3------|
E|-------------------------------|1---------------1-----------1-/|      


00:49
e|1------ ------- ------- -------|1------ ------- ------- -------|
B|3-------3-------3-------3------|3-------3-------3-------3------|
G|2-------2-------2-------2------|2-------2-------2-------2------|
D|----3---------------3-------3--|----3-------3-------3-------3--|
A|1------------------------------|1------------------------------|
E|-------------------------------|-------------------------------|         

And cupboards I'll something with
when bare still there my
the find
e|------- ------- ------- -------|------- ------- ------- -------|
B|-------------------------------|-------------------------------|
G|-------------------------------|-------------------------------|
D|-------------------------------|-------------------------------|
A|----------------------------8-\|-------------------------------|
E|6------------------------------|6---------------6-------6------|
e|------- ------- ------- -------|------- ------- ------- -------|
B|5-------5-------5--------------|-------------------------------|
G|5-------5-------5--------------|----------------2--------------|
D|7-------7-------5-------7-6-5-4|--------4---------------4------|
A|-------------------------------|-------------------------------|
E|5---------------5--------------|-------------------------------|      

love it's it's with
understood everywhere my
e|------- 5------ 5------ -------|------- ------- ------- -------|
B|--------5-------5--------------|------------5---5---5----------|
G|--------5-------5---5----------|----------5---5---5------------|
D|--------7-------7---5H7-7-6-5-4|-------------------------------|
A|--------7-------7--------------|-------------------------------|
E|5-------5-------5--------------|-------------------------------|
e|------- ------- ------- -------|------- ------- ------- -------|
B|3-------3-----3-----3-3-3-3-3--|5-------5---5---6---6---6------|
G|3-------3-----3-----3-3-3-3-3--|5-------5---5---7---7---7------|
D|3-------3-----3-----3-3-3-3-3--|7-------7---7---7---7---7------|
A|-------------------------------|-------------------------------|
E|3---------------3--------------|5---------------6--------------|

love, and my love does it good
e|------- ------- ------- -------|------- 5------ ------- 5------|
B|-------------------------------|--------5---------------6------|
G|----------------3-------------/|5-------5---------------7------|
D|----------------3H5-~---------/|7-------7---------------7------|
A|-------------------------------|--------7----------------------|
E|-------------------------------|--------5---------------6------|
e|------- ------- ------- -------|
B|6-------6---6---6---6---6------|
G|7-------7---7---7---7---7------|
D|7-------7---7---7---7---7------|
A|-------------------------------|
E|7---------------7--------------|

Wo wo
e|------- 5------ ------- 5------|
B|----------6---------------6----|
G|------------7------------------|
D|-------------------------------|
A|-------------------------------|
E|-------------------------------|
e|------- ------- ------- -------|------- ------- ------- -------|
B|1-----------1---1-------1------|3-----------3------------------|
G|2-----------2---2-------2------|5-----------5------------------|
D|3-----------3---3-------3------|3-----------3------------------|
A|-------------------------------|-------------------------------|
E|1---------------1--------------|3-----------3------------------|     

wo wo wo wo wo wo,
e|------- ------- ------- -------|------3 ------- ------- -------|
B|-------------------------------|------3------------------------|
G|----------------------------5--|------3------------------------|
D|------------------------7------|------5------------------------|
A|-------------------------------|------5------------------------|
E|-------------------------------|------3------------------------|
e|------- ------- ------- -------|------- ------- ------- -------|
B|6-------6-------6-------6------|1-------1---1---1-------1------|
G|7-------7-------7-------7------|2-------2---2---2-------2------|
D|8-------8-------8-------8------|3-------3---3---3-------3------|
A|-------------------------------|-------------------------------|
E|6---------------6--------------|1---------------1--------------|

my love does it good Oh,
e|------- ------- ------- -------|------- ------- ------- -------|
B|------------4---3--------------|-------------------------------|
G|------------------------3------|2---------------5-----P--------|
D|-------------------------------|------------5/7----7\53-5---3H5|
A|-------------------------------|-------------------------------|
E|-------------------------------|-------------------------------|                


01:33
 Gm7CFF+5

e|------- ------- ------- -------|------- ------- ------- -------|
B|3-------3----------------------|1-------1-------2-------2------|
G|3-------3---------------0------|2-------2-------2-------2------|
D|3-------3-------2-------2------|3-------3-------3-------3------|
A|----------------3--------------|-------------------------------|
E|3------------------------------|1---------------1--------------|

I love oh, wo my love only
my
e|------- ------- ------- -------|------- ------- ------- -------|
B|-------------------------------|-------------------------------|
G|----------3--------------------|-------------------------------|
D|--------5-----------2-------5--|3---------------3-------2------|
A|----------------3-------3------|------------3------------------|
E|-------------------------------|----3---3/5--------------------|


 BbCFF+5
e|------- ------- ------- -------|------- ------- ------- -------|
B|3-------3-------1-------1------|1-----------1---2-------2------|
G|3-------3-------0-------0------|2-----------2---2-------2------|
D|3-------3-------2-------2------|3-----------3---3-------3------|
A|1---------------3--------------|-------------------------------|
E|-------------------------------|1---------------1--------------|

love holds other key to me, oh
the
e|------- ------- ------- -------|------- ------- ------- -------|
B|-------------------------------|-------------------------------|
G|-------------------------------|-------------------------------|
D|-------------------------------|--------------------3----------|
A|5---------------3--------------|------------3---4-----------0--|
E|-------------------------------|1-----3/5---------------1------|


 Gm7CFF+5
e|------- ------- ------- -------|------- ------- ------- -------|
B|3-------3-------1-------1------|1-------1-------2-------2------|
G|3-------3-------0-------0------|2-------2-------2-------2------|
D|3-------3-------2-------2------|3-------3-------3-------3------|
A|----------------3--------------|-------------------------------|
E|3------------------------------|1---------------1--------------|         

my love, oh my love only
my
e|------- ------- ------- 3------|------- ------- ------- -------|
B|------------------------5------|-------------------------------|
G|------------------------3------|-------------------------------|
D|------------------------5------|-------------------------------|
A|------------------------3------|------------3---4-----------0--|
E|3------------------------------|1---3-/-5---------------3------|


 Gm7C9CF
e|------- ------- ------- -------|------- ------- ------- -------|
B|3-------3-------3-------1------|1------------------------------|
G|3-------3-------3-------0------|2---------------2H3-2---0------|
D|3-------3-------2-------2------|3---------------------------3--|
A|----------------3-------3------|-------------------------------|
E|3------------------------------|1------------------------------|

love does good to me
it
e|------- ------- ------- -------|------- ------- ------- -------|
B|-------------------------------|-------------------------------|
G|-------------------------------|-------------------------------|
D|-------------------------------|-------------------------------|
A|1-----------1---3--------------|-------------------------------|
E|-------------------------------|1------------------------------|


02:05

 BbBbmaj7Bb
e|------- ------- -------10------|------- ------- ------- -------|
B|3---------------3------10------|3------------------------------|
G|3---------------3------10------|3-----------------------3------|
D|3---------------3-------8------|3---------------3-----------3--|
A|1---------------1--------------|1---------------1--------------|
E|-------------------------------|-------------------------------|
e|----6-- --3---- ------- -------|------- 6-3---- ------- 3------|
B|--------------6----------------|------------6-------6-----6----|
G|--------------- 5B7R5B7R5B7----|--------------5B7-----------5B7R
D|-------------------------------|-------------------------------|
A|-------------------------------|-------------------------------|
E|-------------------------------|-------------------------------|
e|------- ------- ------- 10-----|------- ------- ------- -------|
B|------------------------10-----|-------------------------------|
G|------------------------10-----|-------------------------------|
D|------------------------12-----|-------------------------------|
A|------------------------13-----|-------------------------------|
E|-------------------------------|-------------------------------|


 Am7DD7
e|------- ------- ------- -------|------- ------- ------- -------|
B|5-------5----------------------|--------3----------------------|
G|5-------5-------5--------------|--------2-----5---------2------|
D|5-------5-------5-------7-6-5-4|--------4-------4--------------|
A|-------------------------------|--------------------5----------|
E|5------------------------------|-------------------------------|
e|------- ------- ----8-- -------|------- ------- ------- -------|
B|-----------------10-----1010---|--------------------------8-8-8|
G|5--~------------9-----------9-/|11--~--------------------------|
D|-------------------------------|-------------------------------|
A|-------------------------------|-------------------------------|
E|-------------------------------|-------------------------------|


 Gm7Am7Bbmaj7
e|------- ------- ------- -------|------- ------- ------- -------|
B|3-----------------3-----3-3-3--|5---5-----5---5-----6---6-6-6--|
G|3-----------------3-----3-3-3--|5---5-----5---5-----7---7-7-7--|
D|3-----------------3-----3-3-3--|5---5-----5---5-----7---7-7-7--|
A|-------------------------------|-------------------------------|
E|3---------------3--------------|5-------------------6----------|
e|------- ------- ------- -------|------- ------- ------- ------8|
B|8-\---------------------/101010|10-\--------------6-8---6-8/10-|
G|----3-3---3-3------------------|----5-5------5-5/7-------------|
D|-------------------------------|-------------------------------|
A|-------------------------------|-------------------------------|
E|-------------------------------|-------------------------------|


 B/dimDm
e|--------- ----13--- --------- ---------|
B|---6---6------15-----------------------|
G|---7---7------14-----------------------|
D|---7---7-------------------------------|
A|---------------------------------------|
E|7--------------------------------------|

Wo wo
e10/13--13- 10--10--- --------- ---------|
B|-----------13--13--B-R-P-------B-------|
G|-----------------1214121012101214121012|
D|---------------------------------------|
A|---------------------------------------|
E|---------------------------------------|
e|------- ------- ------- -------|------- ------- ------- --8----|
B|1-----------1------------------|3-----------3-----------10-----|
G|2-----------2------------------|3-----------5----------10------|
D|3-----------3------------------|3-----------3------------------|
A|-------------------------------|-------------------------------|
E|1-----------1------------------|3-----------3------------------|      

wo wo wo wo wo wo,
e|------- ------- ------- -------|------- ------- ------- -------|
B|-------------------------------|-------------------------------|
G|10--~--------------------------|-------------------------------|
D|-------------------------------|-------------------------------|
A|-------------------------------|-------------------------------|
E|-------------------------------|-------------------------------|
e|------- ------- ------- -------|------- ------- ------- -------|
B|6-------6-------6---6----------|1---------1-----1--------------|
G|7-------7-------7---7----------|2-------2-------2--------------|
D|8-------8-------8---8----------|3-------3-------3--------------|
A|-------------------------------|-------------------------------|
E|6---------------6--------------|1---------------1--------------|

my love does it good
e|------- ------- ------- -------|------- ------1 ------- 1------|
B|-------------------------------|--------1-----1-1-------1------|
G|-------------------------------|--------2-----2-2-------2------|
D|--------------------3-5-3------|--------3-------3-------3------|
A|----------------3/5---------5-\|3-------3---------------3------|
E|-------------------------------|1-------1---------------1------|     


02:49

e|1------ ------- ------- -------|1------ ------- ------- -------|
B|3-------3-------3-------3------|3-------3-------3-------3------|
G|2-------2-------2-------2------|2-------2-------2-------2------|
D|----3-----------------------3--|------------3-------3----------|
A|1------------------------------|1------------------------------|
E|-------------------------------|-------------------------------|         

Don't ask me why I never goodbye to
ever say my
e|1------ ------- ------- -------|1------ ------- ------- -------|
B|3------------------------------|3------------------------------|
G|3------------------------------|3------------------------------|
D|3------------------------------|3------------------------------|
A|1------------------------------|1------------------------------|
E|---------------------------10-\|-------------------------------|
e|------- ------- ------- -------|------- ------- ------- -------|
B|5-------5-------5--------------|----------------3--------------|
G|5-------5-------5--------------|------------2------------------|
D|7-------7-------7-------7-6-5-4|--------4---------------4------|
A|-------------------------------|------------------------5------|
E|5---------------5--------------|-------------------------------|      

love it's it's with
understood everywhere my
e|------- ------- ------- -------|------- ------- ------- -------|
B|-------------------------------|-------------------------------|
G|----------------5--------------|-------------------------------|
D|----------------5H7-5---7-6-5-4|-------------------------------|
A|--------------7----------------|-------------------------------|
E|-------------------------------|-------------------------------|
e|------- ------- ------- -------|------- ------- ------- -------|
B|3-------3---3-----3-------3-3--|5---------5-----6-------6------|
G|3-------3---3-----3-------3-3--|5---------5-----7-------7------|
D|3-------3---3-----3---2-3-3-3--|7---------7-----7-------7------|
A|-------------------------------|-------------------------------|
E|3---------------3--------------|5---------------6--------------|

love, and my love does it good
e|------- 3------ 3------ 3------|5------ 5------ 6------ 6------|
B|--------3-------3-------3------|5-------5-------6-------6------|
G|--------3-------3-------3------|5-------5-------7-------7------|
D|--------5-------5-------5------|7-------7-------8-------8------|
A|--------5-------5-------5------|7-------7-------8-------8------|
E|--------3-------3-------3------|5-------5-------6-------6------|
e|------- ------- ------- -------|
B|6-----6-6-----6-6-------6---6--|
G|7-----7-7-----7-7-------7---7--|
D|7-----7-7-----7-7-------7---7--|
A|-------------------------------|
E|7---------------7--------------|

Wo wo
e|------- ------- 5------ 5------|
B|6-------6---------6---------6--|
G|7-------7---------7---------7--|
D|7-------7----------------------|
A|-------------------------------|
E|7-------7----------------------|


 FG7sus4G11
e|------- ------- ------- -------|------- ------- ------- 8------|
B|1-----------1-----------1------|3-----------3----------10------|
G|2-----------2-----------2------|5-----------5----------10------|
D|3-----------3-----------3------|3-----------3------------------|
A|-------------------------------|-----------------------10------|
E|1------------------------------|3-----------3------------------|         

wo wo wo wo wo wo,
e|1------ ----1-- ------- -------|------3 ------- ------- -------|
B|1-----------1------------------|------6------------------------|
G|2-----------2------------------|------3------------------------|
D|3-----------3------------------|------3------------------------|
A|3-----------3------------------|------5------------------------|
E|1-----------1------------------|------3------------------------|


 Bbadd9F
e|8------ 8------ 8------ -------|8------ 8--8--- ----8-- -------|
B|6-------6-------6--------------10------10-10-------10----------|
G|7-------7-------7--------------10------10-10-------10----------|
D|8-------8-------8--------------10------10-10-------10----------|
A|-------------------------------|8-------8--8--------8----------|
E|6---------------6--------------|-------------------------------|

my love does it good Oh,
e|------- ------- ------- -------|------- ------- ------- -------|
B|-------------------------------|-------------------------------|
G|-------------------------------|-------------------------------|
D|-------------------------------|-------------------------------|
A|1-------1-----------3/5-3------|-------------------------------|
E|----------------------------5\3|1------------------------------|


03:33
 Gm7C7FF+5

e|------- ------- ------- -------|------- ------- ------- -------|
B|3-------3-------1-------1------|1-------1-------2-------2------|
G|3-------3-------3-------3------|2-------2-------2-------2------|
D|3-------3-------2-------2------|3-------3-------3-------3------|
A|------------------------3------|-------------------------------|
E|3------------------------------|1---------------1--------------|

I love oh, wo my love only
my
e|------- ------- ------- -------|------- ------- --9---- 9------|
B|-------------------------------|-------------------10----10----|
G|-------------------------------|---------------------10----10--|
D|-------------------------------|-------------------------------|
A|----5-------5-\-3--------------|-------------------------------|
E|3-------1-------0--------------|-------------------------------|


(.
 BbC9
e|------- ------- ------- -------|------- ------- ------- -------|
B|3-------3-------3--------------|-------------------------------|
G|3-------3-------3--------------|-------------------------------|
D|3-------3-------2--------------|-------------------------------|
A|1---------------3--------------|-------------------------------|
E|-------------------------------|-------------------------------|

love does good to
it
e|------- ------- ------- -------|------- ------- ------- -------|
B|----------------3--------------|-------------------------------|
G|7---------7-----3--------------|-------------------------------|
D|8-----------8---5--------------|-------------------------------|
A|8-------8-------3--------------|-------------------------------|
E|6-------6----------------------|-------------------------------|

 C7sus2

 FF+5BbC6
e|------- ------- ------- -------|------- ------- ------- -------|
B|1-------1-------2-------2------|3-------3-------1-------1------|
G|2-------2---2---2---2---2------|3-------3-------2-------2------|
D|3-------3-------3-------3------|3-------3-------2-------2------|
A|-------------------------------|1---------------3-------3------|
E|1---------------1--------------|-------------------------------|

me Wo wo wo wo wo wo wo wo
e|------- ------- 5------ 5------|6------ 6------ 8------ 8------|
B|----------------6-------6------|8-------8------10------10------|
G|----------------6-------6------|7-------7-------9-------9------|
D|----------------7-------7------|8-------8------10------10------|
A|-------------------------------|-------------------------------|
E|-------------------------------|6-------6-------8-------8------|

 Bb6C6
e|------- ------- ------- -------|------- ------- ------- -----13|
B|-------------------------------|-----------------------------13|
G|-----------

Am Am7 Bb Bb6 Bbadd9 Bbmaj7 C C6 C7 C7sus2 C9 D D7 Dm F F+5 G11 G7sus4 Gm7
variations - click chord images
Transpose chords:
Tuning:
Cool service:
View: Size:
A  A  A
Rating:
Layout:
  • Currently 0/5 Stars.
  • 1
  • 2
  • 3
  • 4
  • 5
 
Accuracy:
  • Currently 0/5 Stars.
  • 1
  • 2
  • 3
  • 4
  • 5
 
click stars to rate
Chordie recommends:
Learn how to play guitar at JamPlay.com
Songbook:
Login to add this song to your songbook
Support the artist
Preview/buy this song
MSN Music
Why this non-profit ad?

 
login to add comments/video/corrections