Chordie logo

   Various Artists


Heart full of soul (Rush)
Standard Tuning

(Intro)
G:-------------|-------------|-------------|-------------|
D:*----------3-|-------------|----------3--|------------*| (2)
A:*-6--6-4-6---|6--4-6-4-----|-6--6-4-6----|6--4-6-4----*|
E:-------------|-------------|-------------|-------------|

G:-------------|-------------|-------------|-------------|
D:*------------|6--6----6-8-9|--9-----8-6--|------------*| (3)
A:*6----6---6--|-----66------|----9-9-----6|--------4--6*|
E:--------6----|-------------|-------------|--6---6--6---|

G:-------------|-------------|-------------|-------------|
D:-------------|6--6----6-8-9|--9-----8-6--|-------------| 
A:-6----6---6--|-----66------|----9-9-----6|-6-----------|
E:--------6----|-------------|-------------|-------------|

(Chorus) 
G:-------------|-------------|-------------|-------------|
D:-------------|-------6-----|------------9|--9-----6-4--|
A:6--6----6---9|--9--------9-|6--6----6----|----9-9-----6|
E:-----66---6--|-------------|-----66---6--|-------------|

G:-------------|-------------|-------------|----|
D:-------------|-------------|-------------|----|
A:6--6----4----|-------------|-------------|6~--|
E:-----66------|6~-----------|4~-----------|----|

G:-------------|-------------|-------------|-------------|
D:-----------3-|-------------|----------3--|-------------|
A:--6--6-4-6---|6--4-6-4-----|-6--6-4-6----|6--4-6-4-----|
E:-------------|-------------|-------------|-------------|

G:-------------|-------------|-------------|-------------|
D:-------------|6--6----6-8-9|--9-----8-6--|-------------| 
A:-6----6---6--|-----66------|----9-9-----6|--------4--6-|
E:--------6----|-------------|-------------|--6---6--6---|

G:-------------|-------------|-------------|-------------|
D:-------------|6--6----6-8-9|--9-----8-6--|-------------| 
A:-6----6---6--|-----66------|----9-9-----6|-6-----------|
E:--------6----|-------------|-------------|-------------|

(Chorus)
G:-------------|-------------|-------------|-------------|
D:-------------|-------6-----|------------9|--9-----6-4--|
A:6--6----6---9|--9--------9-|6--6----6----|----9-9-----6|
E:-----66---6--|-------------|-----66---6--|-------------|

G:-------------|-------------|-------------|----|
D:-------------|-------------|-------------|----|
A:6--6----4----|-------------|-------------|6~--|
E:-----66------|6~-----------|4~-----------|----|

G:-------------|-------------|-------------|-------------|
D:-----------3-|-------------|----------3--|-------------|
A:--6--6-4-6---|6--4-6-4-----|-6--6-4-6----|6--4-6-4-----|
E:-------------|-------------|-------------|-------------|

G:-------------|-------------|-------------|-------------|
D:*------------|6--6----6-8-9|--9-----8-6--|------------*| (3)
A:*6----6---6--|-----66------|----9-9-----6|--------4--6*|
E:--------6----|-------------|-------------|--6---6--6---|

G:-------------|-------------|-------------|-------------|
D:-------------|6--6----6-8-9|--9-----8-6--|-------------| 
A:-6----6---6--|-----66------|----9-9-----6|-6-----------|
E:--------6----|-------------|-------------|-------------|

(Chorus)
G:-------------|-------------|-------------|-------------|
D:-------------|-------6-----|------------9|--9-----6-4--|
A:6--6----6---9|--9--------9-|6--6----6----|----9-9-----6|
E:-----66---6--|-------------|-----66---6--|-------------|

G:-------------|-------------|-------------|----|
D:-------------|-------------|-------------|----|
A:6--6----4----|-------------|-------------|6~--|
E:-----66------|6~-----------|4~-----------|----|


G:-------------|-------------|-------------|-------------|
D:*----------3-|-------------|----------3--|------------*| (2)
A:*-6--6-4-6---|6--4-6-4-----|-6--6-4-6----|6--4-6-4----*|
E:-------------|-------------|-------------|-------------|

G:-8~----------|~------------|~------------|~------------|
D:-8~----------|~------------|~------------|~------------|
A:-6~----------|~------------|~------------|~------------|
E:-------------|~------------|~------------|~------------|

Thanks, i hope this helps
Tabbed by:


Important: The song above is NOT stored on the Chordie server. The original song is hosted at www.ultimate-guitar.com. Chordie works as a search engine and provides on-the-fly formatting. Chordie does not index songs against artists/composers will. To remove this song please click here.

This song is displayed as text-only. Transposing and tuning is only available for chordpro-songs.

Login - add to songbook

Rating click stars to rate

Layout
Accuracy

SHARE PAGE  

You need to log in to post comments