""; ?> Dear Boy by Paul McCartney - guitar chords, guitar tabs and lyrics - chordie

Dear Boy

Paul McCartney

------------------------------------------------------------

------------------------------------------------------------

e|------ ------ ------ ------|------ ------ ------ ------|
B|---------------------------|---------------------------|
G|---------------------------|---------------------------|
D|---------------------------|---------------------------|
A|---------------------------|---------------------------|
E|---------------------------|---------------------0-----|


 AmAm7

e|0----- 0----- 0----- 0-----|0----- 0----- 0----- 0-----|
B|1------1------1------1-----|1------1------1------1-----|
G|2------2------2------2-----|2------2------2------2-----|
D|2------2------2------2-----|2------2------2------2-----|
A|0--------------------------|---------------------------|
E|---------------------------|3--------------------------|

I guess never knew, dear boy,
you

 Fmaj7BmE7
e|0----- 0----- 0----- 0-----|------ ------ ------ ------|
B|1------1------1------1-----|3------3------3------3-----|
G|2------2------2------2-----|4------4------1------1-----|
D|3------3------3------3-----|4------4------2------2-----|
A|---------------------------|2-------------2------2-----|
E|1--------------------------|--------------0----------0-|

what you have found,

 AmAm7
e|0----- 0----- 0----- 0-----|0----- 0----- 0----- 0-----|
B|1------1------1------1-----|1------1------1------1-----|
G|2------2------2------2-----|2------2------2------2-----|
D|2------2------2------2-----|2------2------2------2-----|
A|0--------------------------|---------------------------|
E|---------------------------|3--------------------------|

I guess never knew, dear boy,
you

 Fmaj7BmE7
e|0----- 0----- 0----- 0-----|------ ------ ------ ------|
B|1------1------1------1-----|3------3------3------3-----|
G|2------2------2------2-----|4------4------1------1-----|
D|3------3------3------3-----|4------4------2------2-----|
A|---------------------------|2-------------2------2-----|
E|1--------------------------|-----------0--0------------|

that she was just cutest thing around,
the

 Fmaj7CEm
e|0----- 0----- 0----- 0-----|3----- 3----- 3----- 3-----|
B|1------1------1------1-----|1------1------0------0-----|
G|2------2------2------2-----|0------0------0------0-----|
D|3------3------3------3-----|2------2------2------2-----|
A|---------------------------|3-------------2------------|
E|1--------------------------|---------------------------|

I guess never knew what you have
you found,

x x x x x x x
 Am7
e|3----- 3----- 3----- 3-----|3----- 3----- 3----- 3-----|
B|1------1------1------1-----|1------1------1------1-----|
G|2------2------2------2-----|2------2------2------2-----|
D|2------2------2------2-----|2------2------2------2-----|
A|0--------------------------|---------------------------|
E|---------------------------|---------------------0-----|               

dear boy

00:20

e|0----- 0----- 0----- 0-----|0----- 0----- 0----- 0-----|
B|1------1------1------1-----|1------1------1------1-----|
G|2------2------2------2-----|2------2------2------2-----|
D|2------2------2------2-----|2------2------2------2-----|
A|0--------------------------|---------------------------|
E|---------------------------|3--------------------------|

I guess never knew, dear boy,
you
e|0----- 0----- 0----- 0-----|------ ------ ------ ------|
B|1------1------1------1-----|3------3------3------3-----|
G|2------2------2------2-----|4------4------1------1-----|
D|3------3------3------3-----|4------4------2------2-----|
A|---------------------------|2-------------2------2-----|
E|1--------------------------|--------------0------------|

that love was there

e|0----- 0----- 0----- 0-----|0----- 0----- 0----- 0-----|
B|1------1------1------1-----|1------1------1------1-----|
G|2------2------2------2-----|2------2------2------2-----|
D|2------2------2------2-----|2------2------2------2-----|
A|0--------------------------|---------------------------|
E|---------------------------|3--------------------------|

And when looked too hard,
maybe you
e|0----- 0----- 0----- 0-----|------ ------ ------ ------|
B|1------1------1------1-----|3------3------3------3-----|
G|2------2------2------2-----|4------4------1------1-----|
D|3------3------3------3-----|4------4------2------2-----|
A|---------------------------|2-------------2------2-----|
E|1--------------------------|-----------0--0------------|

dear boy you never do become aware,

e|0----- 0----- 0----- 0-----|3----- 3----- 3----- 3-----|
B|1------1------1------1-----|1------1------0------0-----|
G|2------2------2------2-----|0------0------0------0-----|
D|3------3------3------3-----|2------2------2------2-----|
A|---------------------------|3-------------2------------|
E|1--------------------------|---------------------------|

I guess never did become aware,
you
e|3----- 3----- 3----- 3-----|3----- 3----- 3----- 3-----|
B|1------1------1------1-----|1------1------1------1-----|
G|2------2------2------2-----|2------2------2------2-----|
D|2------2------2------2-----|2------2------2------2-----|
A|0--------------------------|---------------------------|
E|---------------------------|---------------------------|          

dear boy When I
00:39
 Dm
e|1----- 1----- 1----- 1-----|1----- 1----- 1----- ------|
B|3------3------3------3-----|3------3------3------3-----|
G|2------2------2------2-----|2------2------2------2-----|
D|0--------------------------|0------2------3------4-----|
A|---------------------------|---------------------------|
E|---------------------------|---------------------------|

stepped in, my heart

 CG
e|------ ------ ------ ------|------ ------ ------ ------|
B|5------5------5------5-----|3------3------3------3-----|
G|5------5------5------5-----|4------4------4------4-----|
D|5------5------5------5-----|5------5------5------5-----|
A|---------------------------|---------------------------|
E|3--------------------------|3------3------3------------|         

was down and out,

 AmAm7Fmaj7
e|0----- 0----- 0----- 0-----|0----- 0----- 0----- 0-----|
B|1------1------1------1-----|1------1------1------1-----|
G|2------2------2------2-----|2------2------2------2-----|
D|2------2------2------2-----|3------3------3------3-----|
A|0--------------------------|---------------------------|
E|--------------3------------|1--------------------------|

but love came
her
 Dm
e|1----- 1----- 1----- 1-----|
B|3------3------3------3-----|
G|2------2------2------2-----|
D|0------2------3------4-----|
A|---------------------------|
E|---------------------------|

through and

 CG
e|------ ------ ------ ------|------ ------ ------ ------|
B|5------5-------------5-----|-------3----------3--------|
G|5------5-------------5-----|-------4----------4--------|
D|5------5-------------5-----|-------5----------5--------|
A|---------------------------|---------------------------|
E|3------3-------------3-----|-------3----------3--------|

brought me 'round,
e|------ ------ ------ ------|------ ------ ------ ------|
B|5-------------5------------|--------------3------------|
G|5-------------5------------|--------------4------------|
D|5-------------5------------|--------------5------------|
A|---------------------------|---------------------------|
E|3-------------3------------|3-------------3------------|
e|------ ------ ------ ------|------ ------ ------ ------|
B|-------5----------5--------|3------3----------3--------|
G|-------5----------5--------|4------4----------4--------|
D|-------5----------5--------|5------5----------5--------|
A|---------------------------|---------------------------|
E|-------3----------3--------|3------3----------3--------|

got me up and about.
e|------ ------ ------ ------|------ ------ ------ ------|
B|5-------------5------------|--------------3------------|
G|5-------------5------------|--------------4------------|
D|5-------------5------------|--------------5------------|
A|---------------------------|---------------------------|
E|3-------------3------------|3-------------3------------|
e|0----- 0----- 0----- 0-----|0----- 0----- 0----- 0-----|
B|1------1------1------1-----|1------1------1------1-----|
G|2------2------2------2-----|2------2------2------2-----|
D|2------2------2------2-----|2------2------2------2-----|
A|0--------------------------|---------------------------|
E|---------------------------|---------------------0-----|

e|121212 121212 121212 121212|121212 121212 121212 121212|
B|---------------------------|---------------------------|
G|-9-9-9--9-9-9--9-9-9--9-9-9|-9-9-9--9-9-9--9-9-9--9-9-9|
D|---------------------------|---------------------------|
A|---------------------------|---------------------------|
E|---------------------------|---------------------------|
e|------ ------ ------ ------|------ ------ ------ ------|
B|---------------------------|---------------------------|
G|---------------------------|---------------------------|
D|---------------------------|---------------------------|
A|7-7-7--7-7-7--7-7-7--7-7-7-|7-7-7--7-7-7--7-7-7--7-7-7-|
E|---------------------------|---------------------------|       


01:00

e|0----- 0----- 0----- 0-----|0----- 0----- 0----- 0-----|
B|1------1------1------1-----|1------1------1------1-----|
G|2------2------2------2-----|2------2------2------2-----|
D|2------2------2------2-----|2------2------2------2-----|
A|0------0------0------0-----|---------------------------|
E|---------------------------|3------3------3------3-----|                    

Doo doodoo doodoo dear boy,
e|121212 121212 121212 121212|121212 121212 121212 121212|
B|---------------------------|---------------------------|
G|-9-9-9--9-9-9--9-9-9--9-9-9|-9-9-9--9-9-9--9-9-9--9-9-9|
D|---------------------------|---------------------------|
A|---------------------------|---------------------------|
E|---------------------------|---------------------------|
e|------ ------ ------ ------|------ ------ ------ ------|
B|---------------------------|---------------------------|
G|---------------------------|---------------------------|
D|---------------------------|---------------------------|
A|7-7-7--7-7-7--7-7-7--7-7-7-|7-7-7--7-7-7--7-7-7--7-7-7-|
E|---------------------------|---------------------------|
e|0----- 0----- 0----- 0-----|------ ------ ------ ------|
B|1------1------1------1-----|3------3------3------3-----|
G|2------2------2------2-----|4------4------1------1-----|
D|3------3------3------3-----|4------4------2------2-----|
A|---------------------------|2------2------2------2-----|
E|1------1------1------1-----|--------------0------0-----|

doo doo doo doo
e|121212 121212 121212 121212|121212 121212 121212 121212|
B|---------------------------|---------------------------|
G|-9-9-9--9-9-9--9-9-9--9-9-9|-9-9-9--9-9-9--9-9-9--9-9-9|
D|---------------------------|---------------------------|
A|---------------------------|---------------------------|
E|---------------------------|---------------------------|
e|------ ------ ------ ------|------ ------ ------ ------|
B|---------------------------|---------------------------|
G|---------------------------|---------------------------|
D|---------------------------|---------------------------|
A|7-7-7--7-7-7--7-7-7--7-7-7-|7-7-7--7-7-7--7-7-7--7-7-7-|
E|---------------------------|---------------------------|
e|0----- 0----- 0----- 0-----|0----- 0----- 0----- 0-----|
B|1------1------1------1-----|1------1------1------1-----|
G|2------2------2------2-----|2------2------2------2-----|
D|2------2------2------2-----|2------2------2------2-----|
A|0------0------0------0-----|---------------------------|
E|---------------------------|3------3------3------3-----|

Doo doodoo doodoo dear boy,
e|121212 121212 121212 121212|121212 121212 121212 121212|
B|---------------------------|---------------------------|
G|-9-9-9--9-9-9--9-9-9--9-9-9|-9-9-9--9-9-9--9-9-9--9-9-9|
D|---------------------------|---------------------------|
A|---------------------------|---------------------------|
E|---------------------------|---------------------------|
e|0----- 0----- 0----- 0-----|------ ------ ------ ------|
B|1------1------1------1-----|3------3------3------3-----|
G|2------2------2------2-----|4------4------1------1-----|
D|3------3------3------3-----|4------4------2------2-----|
A|---------------------------|2------2------2------2-----|
E|1------1------1------1-----|--------------0------0-----|

dear boy doo doo doodoo doodoo doo doo
e|121212 121212 121212 121212|121212 121212 121212 121212|
B|---------------------------|---------------------------|
G|-9-9-9--9-9-9--9-9-9--9-9-9|-9-9-9--9-9-9--9-9-9--9-9-9|
D|---------------------------|---------------------------|
A|---------------------------|---------------------------|
E|---------------------------|---------------------------|
e|0----- 0----- 0----- 0-----|3----- 3----- 3----- 3-----|
B|1------1------1------1-----|1------1------0------0-----|
G|2------2------2------2-----|0------0------0------0-----|
D|3------3------2------0-----|2------2------2------2-----|
A|---------------------------|3-------------2------------|
E|1------1-------------------|---------------------------|               

doo doodoo doodoo doo doo doo doo
e|131313 131313 131313 131313|121212 121212 101010 101010|
B|---------------------------|---------------------------|
G|101010-101010-101010-101010|-9-9-9--9-9-9--7-7-7--7-7-7|
D|---------------------------|---------------------------|
A|---------------------------|---------------------------|
E|---------------------------|---------------------------|
e|3----- 3----- ------ 3-----|3----- 3----- 3----- 3-----|
B|1------1-------------1-----|1------1------1------1-----|
G|2------2-------------2-----|2------2------2------2-----|
D|2------2-------------2-----|2------2------2------2-----|
A|0------0-------------0-----|---------------------------|
E|---------------------------|---------------------------|          

dear boy When I
e|8-8-8- 8-8-8- 7-7-7- 5-5-5-|------ ------ ------ ------|
B|---------------------------|---------------------------|
G|5-5-5--5-5-5--4-4-4--2-2-2-|---------------------------|
D|---------------------------|---------------------------|
A|---------------------------|---------------------------|
E|---------------------------|---------------------------|


01:19
e|1----- 1----- 1----- 1-----|1----- 1----- 1----- ------|
B|3------3------3------3-----|3------3------3------3-----|
G|2------2------2------2-----|2------2------2------2-----|
D|0--------------------------|0------2------3------4-----|
A|---------------------------|---------------------------|
E|---------------------------|---------------------------|

stepped in, my heart

e|------ ------ ------ ------|------ ------ ------ ------|
B|5------5-------------5-----|3------3------3------3-----|
G|5------5-------------5-----|4------4------4------4-----|
D|5------5-------------5-----|5------5------5------5-----|
A|---------------------------|---------------------------|
E|3--------------------------|3--------------------------|

was down and out,

e|0----- 0----- 0----- 0-----|0----- 0----- 0----- 0-----|
B|1------1------1------1-----|1------1------1------1-----|
G|2------2------2------2-----|2------2------2------2-----|
D|2------2------2------2-----|3------3------3------3-----|
A|0--------------------------|---------------------------|
E|--------------3------------|1--------------------------|

but love came
her

e|1----- 1----- 1----- 1-----|
B|3------3------3------3-----|
G|2------2------2------2-----|
D|0------2------3------4-----|
A|---------------------------|
E|---------------------------|

through and

e|------ ------ ------ ------|------ ------ ------ ------|
B|5------5-------------------|-------3----------3--------|
G|5------5-------------------|-------4----------4--------|
D|5------5-------------------|-------5----------5--------|
A|---------------------------|---------------------------|
E|3------3-------------------|-------3----------3--------|

brought me 'round,
e|------ ------ ------ ------|------ ------ ------ ------|
B|5-------------5------------|--------------3------------|
G|5-------------5------------|--------------4------------|
D|5-------------5------------|--------------5------------|
A|---------------------------|---------------------------|
E|3-------------3------------|3-------------3------------|
e|------ ------ ------ ------|------ ------ ------ ------|
B|-------5----------5--5-----|-------3----------3--------|
G|-------5----------5--5-----|-------4----------4--------|
D|-------5----------5--5-----|-------5----------5--------|
A|---------------------------|---------------------------|
E|-------3-------------3-----|-------3----------3--------|

got me up and about.
e|------ ------ ------ ------|------ ------ ------ ------|
B|5-------------5------------|--------------3------------|
G|5-------------5------------|--------------4------------|
D|5-------------5------------|--------------5------------|
A|---------------------------|---------------------------|
E|3-------------3------------|3-------------3------------|
e|0----- 0----- 0----- 0-----|0----- 0----- 0----- 0-----|
B|1------1------1------1-----|1------1------1------1-----|
G|2------2------2------2-----|2------2------2------2-----|
D|2------2------2------2-----|2------2------2------2-----|
A|0--------------------------|---------------------------|
E|---------------------------|---------------------0-----|


e|121212 121212 121212 121212|121212 121212 121212 121212|
B|---------------------------|---------------------------|
G|-9-9-9--9-9-9--9-9-9--9-9-9|-9-9-9--9-9-9--9-9-9--9-9-9|
D|---------------------------|---------------------------|
A|---------------------------|---------------------------|
E|---------------------------|---------------------------|
e|------ ------ ------ ------|------ ------ ------ ------|
B|---------------------------|---------------------------|
G|---------------------------|---------------------------|
D|---------------------------|---------------------------|
A|7-7-7--7-7-7--7-7-7--7-7-7-|7-7-7--7-7-7--7-7-7--7-7-7-|
E|---------------------------|---------------------------|              


01:39

e|0----- 0----- 0----- 0-----|0----- 0----- 0----- 0-----|
B|1------1------1------1-----|1------1------1------1-----|
G|2------2------2------2-----|2------2------2------2-----|
D|2------2------2------2-----|2------2------2------2-----|
A|0-------------0------------|---------------------------|
E|---------------------------|3-------------3------3-----|

I hope never know, dear boy,
you
e|121212 121212 121212 121212|121212 121212 121212 121212|
B|---------------------------|---------------------------|
G|-9-9-9--9-9-9--9-9-9--9-9-9|-9-9-9--9-9-9--9-9-9--9-9-9|
D|---------------------------|---------------------------|
A|---------------------------|---------------------------|
E|---------------------------|---------------------------|
e|------ ------ ------ ------|------ ------ ------ ------|
B|---------------------------|---------------------------|
G|---------------------------|---------------------------|
D|---------------------------|---------------------------|
A|7-7-7--7-7-7--7-7-7--7-7-7-|7-7-7--7-7-7--7-7-7--7-7-7-|
E|---------------------------|---------------------------|
e|0----- 0----- 0----- 0-----|------ ------ ------ ------|
B|1------1------1------1-----|3------3------3------3-----|
G|2------2------2------2-----|4------4------1------1-----|
D|3------3------3------3-----|4------4------2------2-----|
A|---------------------------|2------2------2------2-----|
E|1-------------1------1-----|--------------0----------0-|

what you have missed,
e|121212 121212 121212 121212|121212 121212 121212 121212|
B|---------------------------|---------------------------|
G|-9-9-9--9-9-9--9-9-9--9-9-9|-9-9-9--9-9-9--9-9-9--9-9-9|
D|---------------------------|---------------------------|
A|---------------------------|---------------------------|
E|---------------------------|---------------------------|
e|------ ------ ------ ------|------ ------ ------ ------|
B|---------------------------|---------------------------|
G|---------------------------|---------------------------|
D|---------------------------|---------------------------|
A|7-7-7--7-7-7--7-7-7--7-7-7-|7-7-7--7-7-7--7-7-7--7-7-7-|
E|---------------------------|---------------------------|
e|0----- 0----- 0----- 0-----|0----- 0----- 0----- 0-----|
B|1------1------1------1-----|1------1------1------1-----|
G|2------2------2------2-----|2------2------2------2-----|
D|2------2------2------2-----|2------2------2------2-----|
A|0-------------0------------|---------------------------|
E|---------------------------|3-------------3------------|

And when fall in love
even you
e|121212 121212 121212 121212|121212 121212 121212 121212|
B|---------------------------|---------------------------|


Am Am7 Bm C Dm E7 Em Fmaj7 G
variations - click chord images
Transpose chords:
Tuning:
Cool service:
View: Size:
A  A  A
Rating:
Layout:
  • Currently 0/5 Stars.
  • 1
  • 2
  • 3
  • 4
  • 5
 
Accuracy:
  • Currently 0/5 Stars.
  • 1
  • 2
  • 3
  • 4
  • 5
 
click stars to rate
Chordie recommends:
Learn to play guitar with video-based, online guitar lessons at JamPlay.com
Songbook:
Login to add this song to your songbook
Support the artist
Preview/buy this song
MSN Music
Why this non-profit ad?

 
login to add comments/video/corrections