eToCache5 = ""; ?> Scarborough Fair Canticle by Simon & Garfunkel - guitar chords, guitar tabs and lyrics - chordie

Scarborough Fair Canticle

Simon & Garfunkel

----------------------------------------------------------------

----------------------------------------------------------------


Are you going to Scarborough Fair?
Parsley, sage, rosemary, and thyme.
Remember me to one who lives there,
She once was a true love of mine.

Tell her to make me a cambric shirt
(On the side of a hill in the deep forest green).
Parsley, sage, rosemary, and thyme
(Tracing a sparrow on snow-crested ground).
Without no seams nor needlework
(Blankets and bedclothes the child of the mountain).
Then she'll be a true love of mine
(Sleeps unaware of the clarion call).

Tell her to find me an acre of land
(On the side of a hill, a sprinkling of leaves).
Parsley, sage, rosemary, and thyme
(Washes the ground with so many tears).
Between the salt water and the sea strand
(A soldier cleans and polishes a gun).
Then she'll be a true love of mine.
(Sleeps unaware of the clarion call).

Tell her to reap it in a sickle of leather
(War bellows, blazing in scarlet battalions).
Parsley, sage, rosemary, and thyme
(Generals order their soldiers to kill).
And gather it all in a bunch of heather
(And to fight for a cause they've long ago forgotten).
Then she'll be a true love of mine.

Are you going to Scarborough Fair?
Parsley, sage, rosemary, and thyme.
Remember me to one who lives there,
she once was a true love of mine

Tune low E string to D and
use a capo on the 7th fret

 A13Cmaj7

e|--0--- --0--- --0--- --0---|------ ------|
B|---------------------------|--0----------|
G|----0------0------0------0-|----0--------|
D|-------4------0------4-----|-------------|
A|0--------------------------|3--------2---|
E|---------------------------|-------------|


 A13Asus2A13Asus2
e|--0--- --0--- --0--- ------|--0--- --0--- --0--- ------|
B|------------------0----0---|------------------0----0---|
G|----0------0-------------2-|----0------0-------------2-|
D|-------4-------------2-----|-------4-------------2-----|
A|0-------------0------------|0-------------0------------|
E|---------------------------|---------------------------|


 A13A7sus2GCG
e|--0--- --0--- --0--- ------|------ ------|
B|------------------0----0---|0------1-0---|
G|----0------0-------------0-|--0----0-0---|
D|-------4-------------2-----|----0--2-0---|
A|0-------------0------------|-------------|
E|---------------------------|5------------|

Are you to Scarborough
going

 A13Asus2CAmGD
e|--0--- --0--- --0--- ------|--0--- ------|--0--- ------ 0---2- ------|
B|------------------0----0---|---------1---|----1----1------------3----|
G|----0------0-------------0-|----0----0---|---------------------------|
D|-------4-------------2-----|-------------|-------2----------0--------|
A|0-------------0------------|3------------|0-------------3------------|
E|---------------------------|-------------|---------------------------|

Fair? Parsley, sage, rosemary and

 A13Asus2A13Asus2
e|--0--- --0--- --0--- ------|--0--- --0--- --0--- ------|
B|------------------0----0---|------------------0----0---|
G|----0------0-------------2-|----0------0---------------|
D|-------4-------------2-----|-------4-------------2-----|
A|0-------------0------------|0-------------0------------|
E|---------------------------|---------------------------|

thyme. remember

 Am7CCGAmG
e|--0--- ------|--0--- ------ 0----- ------|------ ------ ------ ------|
B|----1--------|---------1--------3----1---|0--------1P0--1---0--------|
G|-------0-----|----0----------------------|--0----0-------------------|
D|-------------|-------2-------------------|----0----2P0--2---0--------|
A|0--------0-2-|3-------------3---2----0---|---------------------------|
E|-------------|---------------------------|5----------------------5---|    

me to one who lives
there,

 A7G

e|--0--- --0---|------ ------ ------ ------|
B|-------------|0--------1----0--0H1P0-----|
G|----0------0-|-------0-----------------0-|
D|-------2-----|----0----2----0--0H2P0-2---|
A|0------------|---------------------------|
E|-------------|5-------------5------------|

She once was a true of
love

 A13Asus2A13Asus2
e|--0--- --0--- --0--- ------|--0--- --0--- --0--- ------|
B|------------------0----0---|------------------0----0---|
G|----0------0-------------2-|----0------0-------------2-|
D|-------4-------------2-----|-------4-------------2-----|
A|0-------------0------------|0-------------0------------|
E|---------------------------|---------------------------|

mine.

00:43

e|--0--- --0--- --0--- ------|------ ------|
B|------------------0----0---|0---1---0----|
G|----0------0-------------0-|-------------|
D|-------4-------------2-----|0---2---0----|
A|0-------------0------------|-------------|
E|---------------------------|5------------|

Tell to make a cambric
her me
(On side a
the of

e|--0--- --0--- --0--- ------|--0--- ------|0----- ------ 0---2- ------|
B|------------------0----0---|---------1---|--1------1------------3----|
G|----0------0-------------0-|----0------0-|----0----------------------|
D|-------4-------------2-----|-------------|-------2----------0---0----|
A|0-------------0------------|3------------|0-------------3------------|
E|---------------------------|-------------|---------------------------|

shirt Parsley, sage, rosemary and
hill the deep green).
in forest

e|--0--- --0--- --0--- ------|--0--- --0--- --0--- ------|
B|------------------0----0---|------------------0----0---|
G|----0------0-------------2-|----0------0---------------|
D|-------4-------------2-----|-------4-------------2-----|
A|0-------------0------------|0-------------0------------|
E|---------------------------|---------------------------|

thyme. Without
(Tracing a sparrow on snow ground).
crested

e|--0--- ------|--0--- ------ 0----- ------|------ ------ ------ ------|
B|----1--------|---------1--------3----1---|0--------1P0--1---0--------|
G|-------0-----|----0----------------------|--0----0-------------------|
D|-------------|-------2-------------------|----0----2P0--2---0--------|
A|0--------0-2-|3-------------3---2----0---|---------------------------|
E|-------------|---------------------------|5----------------------5---|      

no seams nor needlework
(Blankets and bedclothes child the
the of

e|--0--- --0---|------ ------ ------ ------|
B|-------------|0--------1----0--0H1P0-----|
G|----0--------|-------0---------------0---|
D|-------2-----|----0----2----0--0H2P0-----|
A|0------------|---------------------------|
E|-------------|5-------------5------------|

Then she'll a true of
be love
mountain).

e|--0--- --0--- --0--- ------|--0--- --0--- --0--- ------|
B|------------------0----0---|------------------0----0---|
G|----0------0-------------2-|----0------0-------------2-|
D|-------4-------------2-----|-------4-------------2-----|
A|0-------------0------------|0-------------0------------|
E|---------------------------|---------------------------|                      

mine
(Sleeps of the clarion call).
unaware

01:16

e|--0--- --0--- --0--- ------|------ ------|
B|------------------0----0---|0---1---0----|
G|----0------0-------------0-|0------------|
D|-------4-------------2-----|0---2---0----|
A|0-------------0------------|-------------|
E|---------------------------|5------------|                                         

Tell to find an acre of
her me
(On side a
the of

e|--0--- --0--- --0--- ------|--0--- ------|--0--- --0--- 0---2- ------|
B|------------------0----0---|----1----1---|----1------1----------3----|
G|----0------0-------------0-|-------0---0-|-------0-------------------|
D|-------4-------------2-----|-------------|------------------0---0----|
A|0-------------0------------|3------------|0-------------3------------|
E|---------------------------|-------------|---------------------------|

land Parsley, sage, rosemary and
hill, a sprinkling leaves).
of

e|--0--- --0--- --0--- ------|--0--- --0--- --0--- ------|
B|------------------0----0---|------------------0----0---|
G|----0------0---------------|----0------0-------------2-|
D|-------4-------------2-----|-------4-------------2-----|
A|0-------------0------------|0-------------0------------|
E|---------------------------|---------------------------|

thyme Between
(Washes the ground with so many tears).

e|--0--- ------|--0--- ------ 0----- ------|------ ------ ------ ------|
B|----1--------|---------1--------3----1---|0--------1P0--1---0--------|
G|-------0-----|----0----------------------|--0----0-------------------|
D|-------------|-------2-------------------|----0----2P0--2---0--------|
A|0--------0-2-|3-------------3---2----0---|---------------------------|
E|-------------|---------------------------|5--------------------0-5---|      

the salt water and the sea strand
(A soldier cleans and polishes a

e|--0--- --0---|------ ------ ------ ------|
B|-------------|0--------1----0--0H1P0-----|
G|----0--------|-------0---------------0---|
D|-------2-----|----0----2----0--0H2P0-----|
A|0------------|---------------------------|
E|-------------|5-------------5------------|

Then she'll a true of
be love
gun).

e|--0--- --0--- --0--- ------|--0--- --0--- --0--- ------|
B|------------------0----0---|------------------0----0---|
G|----0------0---------------|----0------0-------------2-|
D|-------4-------------2-----|-------4-------------2-----|
A|0-------------0------------|0-------------0------------|
E|---------------------------|---------------------------|                             

mine

01:50

e|--0--- --0--- --0--- --0---|------ ------|
B|------------------0--------|0---1---0----|
G|----0------0---------------|-------------|
D|-------4-------------2-----|0---2---0----|
A|0-------------0------------|-------------|
E|---------------------------|3------------|                                       

Tell to reap in sickle of
her it a
(War bellows,

e|--0--- --0--- --0--- ------|--0--- ------|0----- ------ 0---2- ------|
B|------------------0----0---|---------1---|--1------1------------3----|
G|----0------0-------------0-|----0------0-|----0----------------------|
D|-------4-------------2-----|-------------|-------2----------0---0----|
A|0-------------0------------|3------------|0-------------3------------|
E|---------------------------|-------------|---------------------------|

leather Parsley, sage, rosemary and
blazing in scarlet battalions).

 A13
e|0----- --0--- 0----- --0---|0----- --0--- 0----- --0---|
B|3--------3----3--------3---|3--------3----3--------3---|
G|0--------0----0--------0---|0--------0----0--------0---|
D|4--------4----4--------4---|4--------4----4--------4---|
A|0--------0----0--------0---|0--------0----0--------0---|
E|---------------------------|---------------------------|

thyme and
(Generals order their to kill).
soldiers

e|--0--- ------|--0--- ------ 0----- ------|------ ------ ------ ------|
B|----1--------|---------1--------3----1---|0--------1P0--1---0--------|
G|-------0-----|----0----------------------|---------------------------|
D|-------------|-------2-------------------|0--------2P0--2---0--------|
A|0--------0-2-|3-------------3---2----0---|---------------------------|
E|-------------|---------------------------|5----------------------0-5-|      

gather it all in a bunch of heather
(and fight a cause they've ago forgotten).
to for long

e|--0--- --0---|------ ------ ------ ------|
B|-------------|0--------1----0--0H1P0-----|
G|----2--------|-------0---------------0---|
D|-------2-----|---------2----0--0H2P0-----|
A|0------------|---------------------------|
E|-------------|5-------------5------------|

Then she'll a true of
be love

e|--0--- --0--- --0--- ------|--0--- --0--- --0--- ------|
B|------------------0----0---|------------------0----0---|
G|----0------0-------------2-|----0------0-------------2-|
D|-------4-------------2-----|-------4-------------2-----|
A|0-------------0------------|0-------------0------------|
E|---------------------------|---------------------------|                  

mine

02:24

e|--0--- --0--- --0--- ------|------ ------|
B|------------------0----0---|0------1-0---|
G|----0------0-------------0-|-------0-0---|
D|-------4-------------2-----|0------2-0---|
A|0-------------0------------|-------------|
E|---------------------------|5---5--------|

Are you to Scarborough
going

e|--0--- --0--- --0--- ------|--0--- ------|--0--- ------ 0---2- ------|
B|------------------0----0---|---------1---|----1----1------------3----|
G|----0------0-------------0-|----0--------|---------------------------|
D|-------4-------------2-----|-------2-----|-------2----------0---0----|
A|0-------------0------------|3------------|0-------------3------------|
E|---------------------------|-------------|---------------------------|

Fair? Parsley, sage, rosemary and

e|--0--- --0--- --0--- ------|--0--- --0--- --0--- ------|
B|------------------0----0---|------------------0----0---|
G|----0------0-------------2-|----0------0---------------|
D|-------4-------------2-----|-------4-------------2-----|
A|0-------------0------------|0-------------0------------|
E|---------------------------|---------------------------|

thyme. remember

e|--0--- ------|--0--- ------ 0----- ------|------ ------ ------ ------|
B|----1--------|---------1--------3----1---|0--------1P0--1---0--------|
G|-------0-----|----0----------------------|--0------------------------|
D|-------------|-------2-------------------|----0----2P0--2---0--------|
A|0--------0-2-|3-------------3---2----0---|---------------------------|
E|-------------|---------------------------|5----------------------5---|

me to one who lives
there,


e|--0--- --0---|------ ---HP- -HP--- ------|
B|----0--------|0--------010--010----------|
G|-------------|----------HP---HP----------|
D|-------2-----|----0----020--020------0---|
A|0------------|---------------------------|
E|-------------|5-----------------5--------|

She once was a true of
love

 A13Asus2A13Asus2
e|--0--- --0--- --0--- ------|--0--- --0--- --0--- ------|
B|------------------0----0---|------------------0----0---|
G|----0------0-------------2-|----0------0-------------2-|
D|-------4-------------2-----|-------4-------------2-----|
A|0-------------0------------|0-------------0------------|
E|---------------------------|---------------------------|

mine.

 A13Dadd9/6Asus2CBA
e|--0--- --0--- --0--- ------|------ ------ ------ ------|
B|------------------0----0---|--0------------------------|
G|----0------0-------------2-|----0----------------------|
D|-------4------0------2-----|---------------------------|
A|0--------------------------|3--------2----0------------|
E|---------------------------|---------------------------|

]
e|------ ------ ------ ------|------ ------ ------ 24----|
B|---------------------------|---------------------24----|
G|---------------------------|---------------------------|
D|---------------------------|---------------------------|
A|---------------------------|---------------------------|
E|---------------------------|---------------------------|

(These final harmonics are produced with another guitar
without a capo and over the soundhole, where it should
be the 24th fret If there was one.)


B Bend
R Release
/ Slide up
\ Slide down
H Hammer-on
P Pull-off
~ Vibrato
+ Harmonic
x Mute note
. Play note like a dot in standard notation
^ Ties two notes together
(. Pause


END

+--------------------------------------------------------------------------+

| This file is the author's own work and represents their interpretation |
| of the song. You may only use this file for private study, scholarship, |
| or research. |
+--------------------------------------------------------------------------+


Ultimate-Guitar.Com © 2005


A A13 A7 A7sus2 Am Am7 Asus2 B C Cmaj7 D G
variations - click chord images
Transpose chords:
Tuning:
Cool service:
View: Size:
A  A  A
Rating:
Layout:
  • Currently 0/5 Stars.
  • 1
  • 2
  • 3
  • 4
  • 5
 
Accuracy:
  • Currently 5/5 Stars.
  • 1
  • 2
  • 3
  • 4
  • 5
 
click stars to rate
Chordie recommends:
Learn to play guitar with video-based, online guitar lessons at JamPlay.com
Songbook:
Login to add this song to your songbook
Support the artist
Preview/buy this song
MSN Music
Why this non-profit ad?

 
login to add comments/video/corrections