----------------------------------------------------------

----------------------------------------------------------

 E
e|------ ------ ------ ------|------ ------ ------ ----4-|
B|---------------------------|-----------------------5---|
G|---------------------------|---------------------4-----|
D|---------------------------|------------------6--------|
A|---------------------------|----------------7----------|
E|---------------------------|--------------4------------|


 A
e|------ ----4- ------ ----4-|------ ----9- ------ ----9-|
B|---------5-------------5---|--------10------------10---|
G|-------4-------------4-----|-------9-------------9-----|
D|----6-------------6--------|----11------------11-------|
A|--7-------------7----------|--12------------12---------|
E|4-------------4------------|9-------------9------------|


 DGD
e|------ ----10 ------ ----10|--7--- ------ ------ ------|
B|---------10------------12--|---8-------10-----------10-|
G|-------11------------12----|----7-------11--------11---|
D|----12------------12-------|-------9------12----12-----|
A|--12------------10---------|10----------------12-------|
E|10------------10-----------|----------10----10---------|


 GD
e|------ ----7- ------ ----10|------ ------ ------ ------|
B|---------8-------------10--|-10------------------------|
G|-------7-------------11----|---11------11--------------|
D|----9-------------12-------|-----12--12----------------|
A|-10-------------12---------|-------12------------------|
E|7-------------10-----------|10-------------------------|


 Cm7
e|------ ------ ------ ------|------ ------ ------ ------|
B|---------------------------|---------------------------|
G|---------------------------|-------------------8-------|
D|---------------------------|-------------------8-------|
A|---------------------------|------------------10-------|
E|---------------------------|--------------8------------|


 Bbm
e|------ ------ ------ ------|------ ------ ------ ------|
B|---------------------------|---------------------------|
G|-------------------------6-|---------------------------|
D|-------------------------8-|---------------------------|
A|-------------------------8-|---------------------------|
E|------8----6----8----9-----|---------------------------|

Take one OK
e|------ ------ ------ ------|------ ------ ------ ------|
B|---------------------------|---------------------8---9-|
G|---------------------------|---------------------------|
D|---------------------------|---------------------------|
A|---------------------------|---------------------------|
E|---------------------------|---------------------------|


12/8

x x x x
 C#maj7
e|----8- 8---8- 8----- ------|------ ------ ------ ------|
B|----9--9---9--9------------|---------------------------|
G|---10-10--10-10------------|---------------------------|
D|---11-11--11-11------------|---------------------------|
A|---------------------------|---------------------------|
E|---------------------------|---------------------------|
e|------ ------ ------ ------|------ ------ ------ ------|
B|---------------------------|---------------------8---9-|
G|---------------------------|---------------------------|
D|---------------------------|---------------------------|
A|---------------------------|---------------------------|
E|---------------------------|---------------------------|
e|----8- 8---8- 8---8- 8---8-|8---8- 8----- ------ ------|
B|----9--9---9--9---9--9---9-|9---9--9-------------------|
G|---10-10--10-10--10-10--10-10--10-10-------------------|
D|---11-11--11-11--11-11--11-11--11-11-------------------|
A|---------------------------|---------------------------|
E|---------------------------|---------------------------|
e|------ ------ ------ ------|------ ------ ------ ------|
B|---------------------------|--------------8------9-----|
G|---------------------------|---------------------------|
D|---------------------------|---------------------------|
A|---------------------------|---------------------------|
E|---------------------------|---------------------------|


 Bbm
e|----6- 6---6- 6---6- 6---6-|6----- 6---6- 6---6- 6-----|
B|----6--6---6--6---6--6---6-|6------6---6--6---6--6-----|
G|----6--6---6--6---6--6---6-|6------6---6--6---6--6-----|
D|---------------------------|---------------------------|
A|---------------------------|---------------------------|
E|---------------------------|---------------------------|
e|------ ------ ------ ------|------ ------ ------ ------|
B|11-------------------------|---------------------------|
G|---------------------------|---------------------------|
D|---------------------------|---------------------------|
A|---------------------------|---------------------------|
E|---------------------------|---------------------------|


 C#maj7
e|8---8- 8---8- 8---8- 8---8-|8---8- 8---8- 8---8- 8---6-|
B|9---9--9---9--9---9--9---9-|9---9--9---9--9---9--9---6-|
G10--10-10--10-10--10-10--10-10--10-10--10-10--10-10---6-|
D11--11-11--11-11--11-11--11-11--11-11--11-11--11-11-----|
A|---------------------------|---------------------------|
E|---------------------------|---------------------------|


 Bbm
e|6---6- 6---6- 6---6- 6---6-|6---6- 6----- 6----- 6-----|
B|6---6--6---6--6---6--6---6-|6---6--6------6------6-----|
G|6---6--6---6--6---6--6---6-|6---6--6------6------6-----|
D|---------------------------|---------------------------|
A|---------------------------|---------------------------|
E|---------------------------|---------------------------|


00:36
 CFCF
e|8----- 8----- 8---8- 8---8-|8---8- 8---8- 8---8- 8---8-|
B|8------8-----10--10-10--10-|8---8--8---8-10--10-10--10-|
G|9------9-----10--10-10--10-|9---9--9---9-10--10-10--10-|
D10-----10-----10--10-10--10-10--10-10--10-10--10-10--10-|
A|---------------------------|---------------------------|
E|---------------------------|---------------------------|


 CFCFC
e|8---8- 8---8- 8---8- 8---8-|8---8- 8---8- 8----- ------|
B|8---8--8---8-10--10-10--10-|8---8-10---8--8------------|
G|9---9--9---9-10--10-10--10-|9---9-10---9--9------------|
D10--10-10--10-10--10-10--10-10--10-10--10-10------------|
A|---------------------------|---------------------------|
E|---------------------------|---------------------------|  

Ram on
e|------ ------ ------ ------|------ ------ ------ ------|
B|---------------------------|---------------------8---9-|
G|---------------------------|---------------------------|
D|---------------------------|---------------------------|
A|---------------------------|---------------------------|
E|---------------------------|---------------------------|


00:43

e|----8- 8---8- 8---8- 8---8-|8---8- 8---8- 8---8- 8-----|
B|----9--9---9--9---9--9---9-|9---9--9---9--9---9--9-----|
G|---10-10--10-10--10-10--10-10--10-10--10-10--10-10-----|
D|---11-11--11-11--11-11--11-11--11-11--11-11--11-11-----|
A|---------------------------|---------------------------|
E|---------------------------|---------------------------|

give your
e|------ ------ ------ ------|------ ------ ------ ------|
B|---------------------------|--------------8------9-----|
G|---------------------------|---------------------------|
D|---------------------------|---------------------------|
A|---------------------------|---------------------------|
E|---------------------------|---------------------------|
e|6----- 6---6- 6---6- 6---6-|6---6- 6---6- 6---6- 6-----|
B|6------6---6--6---6--6---6-|6---6--6---6--6---6--6-----|
G|6------6---6--6---6--6---6-|6---6--6---6--6---6--6-----|
D|---------------------------|---------------------------|
A|---------------------------|---------------------------|
E|---------------------------|---------------------------|

heart to somebody,
e|------ ------ ------ ------|------ ------ ------ ------|
B|11-------------------------|---------------------------|
G|---------------------------|---------------------------|
D|---------------------------|---------------------------|
A|---------------------------|---------------------------|
E|---------------------------|---------------------------|
e|8---8- 8---8- 8---8- 8---8-|8---8- 8---8- 8---8- 8-----|
B|9---9--9---9--9---9--9---9-|9---9--9---9--9---9--9-----|
G10--10-10--10-10--10-10--10-10--10-10--10-10--10-10-----|
D11--11-11--11-11--11-11--11-11--11-11--11-11--11-11-----|
A|---------------------------|---------------------------|
E|---------------------------|---------------------------|

Soon, right away,

e|6---6- 6---6- 6----- 6---6-|6---6- 6---6- 6---6- 6-----|
B|6---6--6---6--6------6---6-|6---6--6---6--6---6--6-----|
G|6---6--6---6--6------6---6-|6---6--6---6--6---6--6-----|
D|---------------------------|---------------------------|
A|---------------------------|---------------------------|
E|---------------------------|---------------------------|

right away.

00:58
e|8---8- 8---8- 8---8- 8---8-|8---8- 8---8- 8---8- 8---8-|
B|8---8--8---8-10--10-10--10-|8---8--8---8-10--10-10--10-|
G|9---9--9---9-10--10-10--10-|9---9--9---9-10--10-10--10-|
D10--10-10--10-10--10-10--10-10--10-10--10-10--10-10--10-|
A|---------------------------|---------------------------|
E|---------------------------|---------------------------|
e|------ ------ ------ ------|------ ------ ------ ------|
B|-------1-------------1-----|-------1-------------1-----|
G|-------0-------------2-----|-------0-------------2-----|
D|-------2-------------3-----|-------2-------------3-----|
A|3-------------3------------|3-------------3------------|
E|---------------------------|---------------------------|
e|8---8- 8---8- 8---8- 8---8-|8---8- 8---8- 8---8- 8-----|
B|8---8--8---8-10--10-10--10-|8---8-10--10--8---8--8-----|
G|9---9--9---9-10--10-10--10-|9---9-10--10--9---9--9-----|
D10--10-10--10-10--10-10--10-10--10-10--10-10--10-10-----|
A|---------------------------|---------------------------|
E|---------------------------|---------------------------|

Ram on
e|------ ------ ------ ------|------ ------ ------ ------|
B|---------------------------|---------------------8---9-|
G|---------------------------|---------------------------|
D|---------------------------|---------------------------|
A|---------------------------|---------------------------|
E|---------------------------|---------------------------|
e|------ ------ ------ ------|------ ------ ------ ------|
B|-------1-------------1-----|----1------1---------------|
G|-------0-------------2-----|----0------2---------------|
D|-------2-------------3-----|----2------3---------------|
A|3-------------3------------|3-------------3------------|
E|---------------------------|---------------------------|             


01:06

e|----8- 8---8- 8---8- 8---8-|8---8- 8---8- 8----- 8---8-|
B|----9--9---9--9---9--9---9-|9---9--9---9--9------9---9-|
G|---10-10--10-10--10-10--10-10--10-10--10-10-----10--10-|
D|---11-11--11-11--11-11--11-11--11-11--11-11-----11--11-|
A|---------------------------|---------------------------|
E|---------------------------|---------------------------|

give your
e|------ ------ ------ ------|------ ------ ------ ------|
B|---------------------------|--------------8------9-----|
G|---------------------------|---------------------------|
D|---------------------------|---------------------------|
A|---------------------------|---------------------------|
E|---------------------------|---------------------------|
e|6---6- 6---6- 6---6- 6-----|6---6- 6---6- 6----- 6-----|
B|6---6--6---6--6---6--6-----|6---6--6---6--6------6-----|
G|6---6--6---6--6---6--6-----|6---6--6---6--6------6-----|
D|---------------------------|---------------------------|
A|---------------------------|---------------------------|
E|---------------------------|---------------------------|

heart to somebody,
e|------ ------ ------ ------|------ ------ ------ ------|
B|11-------------------------|---------------------------|
G|---------------------------|---------------------------|
D|---------------------------|---------------------------|
A|---------------------------|---------------------------|
E|---------------------------|---------------------------|
e|8----- 8---8- 8---8- 8-----|8---8- 8---8- 8---8- 8-----|
B|9------9---9--9---9--9-----|9---9--9---9--9---9--9-----|
G10-----10--10-10--10-10-----10--10-10--10-10--10-10-----|
D11-----11--11-11--11-11-----11--11-11--11-11--11-11-----|
A|---------------------------|---------------------------|
E|---------------------------|---------------------------|

Soon, right away,
e|------ 8---11 ------ 8-----|8----- ------ ------ ------|
B|----9----------------------|--------------9------------|
G|10-------------------------|---------------------------|
D|---------------------------|---------------------------|
A|---------------------------|---------------------------|
E|---------------------------|---------------------------|
e|6---6- 6---6- 6---6- 6---6-|6---6- 6---6- 6----- 6-----|
B|6---6--6---6--6---6--6---6-|6---6--6---6--6------6-----|
G|6---6--6---6--6---6--6---6-|6---6--6---6--6------6-----|
D|---------------------------|---------------------------|
A|---------------------------|---------------------------|
E|---------------------------|---------------------------|

right away.

e|------ 9---13 ------ ------|------ ------ ------ ------|
B|----11---------------11----|--------------11-----------|
G|10-------------------------|---------------------------|
D|---------------------------|---------------------------|
A|---------------------------|---------------------------|
E|---------------------------|---------------------------|


01:20
e|8---8- 8----- 8---8- 8-----|8---8- 8---8- 8---8- 8-----|
B|8---8--8-----10--10-10-----|8---8--8--10-10--10-10-----|
G|9---9--9-----10--10-10-----|9---9--9--10-10--10-10-----|
D10--10-10-----10--10-10-----10--10-10--10-10--10-10-----|
A|---------------------------|---------------------------|
E|---------------------------|---------------------------|

Dum dum dum deedum dum dum dum dee
e|------ 12--15 ------ 13----|12---- ------ ------ ------|
B|----13---------------------|-----------13--------------|
G|12-------------------------|---------------------12--10|
D|---------------------------|---------------------------|
A|---------------------------|---------------------------|
E|---------------------------|---------------------------|
e|8---8- 8---8- 8----- 8-----|8---8- 8---8- 8----- ------|
B|8---8--8---8-10-----10-----|8--10-10--10--8------------|
G|9---9--9---9-10-----10-----|9--10-10--10--9------------|
D10--10-10--10-10-----10-----10--10-10--10-10------------|
A|---------------------------|---------------------------|
E|---------------------------|---------------------------| 

 dumdumdududududum
e|------ ------ ------ ------|------ ------ ------ ------|
B|---------------------------|---------------------8---0-|
G|---------------------------|---------------------------|
D|---------------------------|---------------------------|
A|---------------------------|---------------------------|
E|---------------------------|---------------------------|
e|------ ----8- ------ ------|------ ------ ------ ------|
B|---------------------------|---------------------------|
G|9--------------------12--10|9--------------------------|
D|---------------------------|---------------------------|
A|---------------------------|---------------------------|
E|---------------------------|---------------------------|          


01:28

e|----8- 8---8- 8----- 8-----|8----- 8---8- 8---8- 8--6--|
B|----9--9---9--9------9-----|9------9---9--9---9--9--6--|
G|---10-10--10-10-----10-----10-----10--10-10--10-10--6--|
D|---11-11--11-11-----11-----11-----11--11-11--11-11-----|
A|---------------------------|---------------------------|
E|---------------------------|---------------------------|

(Paul's vocal
e|------ ------ ------ ------|------ ------ ------ ------|
B|---------------------------|--------------8------9-----|
G|---------------------------|---------------------------|
D|---------------------------|---------------------------|
A|---------------------------|---------------------------|
E|---------------------------|---------------------------|

 C#maj9
e|------ ------ ------ ------|------ ------ ------ ------|
B|----9---------9------------|---------------------------|
G|----8---------8------------|---------------------------|
D|---10--------10------------|---------------------------|
A|---------------------------|---------------------------|
E|----9---------9------------|---------------------------|
e|6----- 6---6- 6---6- 6---6-|6---6- 6---6- 6---6- 6---8-|
B|6------6---6--6---6--6---6-|6---6--6---6--6---6--6---9-|
G|6------6---6--6---6--6---6-|6---6--6---6--6---6--6--10-|
D|---------------------------|------------------------11-|
A|---------------------------|---------------------------|
E|---------------------------|---------------------------|

trombone solo)
e|------ ------ ------ ------|------ ------ ------ ------|
B|11-------------------------|---------------------------|
G|---------------------------|---------------------------|
D|---------------------------|---------------------------|
A|---------------------------|---------------------------|
E|---------------------------|---------------------------|

 Bbm7
e|------ ------ ------ ------|------ ------ ------ ------|
B|----6---------6------------|---------------------------|
G|----6---------6------------|---------------------------|
D|----6---------6------------|---------------------------|
A|---------------------------|---------------------------|
E|----6---------6------------|---------------------------|
e|8----- 8---8- 8----- 8---8-|8----- 8---8- 8---8- 8---6-|
B|9------9---9--9------9---9-|9------9---9--9---9--9---6-|
G10-----10--10-10-----10--10-10-----10--10-10--10-10---6-|
D11-----11--11-11-----11--11-11-----11--11-11--11-11-----|
A|---------------------------|---------------------------|
E|---------------------------|---------------------------|
e|------ ------ ------ ------|------ ------ ------ ------|
B|11-------------------------|---------------------------|
G|---------------------------|---------------------------|
D|---------------------------|---------------------------|
A|---------------------------|---------------------------|
E|---------------------------|---------------------------|

 C#maj9
e|------ ------ ------ ------|------ ------ ------ ------|
B|-----9--------9------------|----9---------9------------|
G|-----8--------8------------|----8---------8------------|
D|----10-------10------------|---10--------10------------|
A|---------------------------|---------------------------|
E|9-------------9------------|9-------------9------------|
e|6---6- 6---6- 6----- 6---6-|6---6- 6---6- 6---6- 6-----|
B|6---6--6---6--6------6---6-|6---6--6---6--6---6--6-----|
G|6---6--6---6--6------6---6-|6---6--6---6--6---6--6-----|
D|---------------------------|---------------------------|
A|---------------------------|---------------------------|
E|---------------------------|---------------------------|
e|------ ------ ------ ------|------ ------ ------ ------|
B|11-------------------------|---------------------------|
G|---------------------------|---------------------------|
D|---------------------------|---------------------------|
A|---------------------------|---------------------------|
E|---------------------------|---------------------------|

 Bbm
e|------ ------ ------ ------|------ ------ ------ ------|
B|----6---------6------------|----6---------6------------|
G|----6---------6------------|----6---------6------------|
D|----8---------8------------|----8---------8------------|
A|---------------------------|---------------------------|
E|9-------------9------------|9-------------9------------|
e|8----- 8---8- 8---8- 8---8-|8---8- 8---8- 8---8- 8-----|
B|8------8---8-10--10-10--10-|8---8--8---8-10--10-10-----|
G|9------9---9-10--10-10--10-|9---9--9---9-10--10-10-----|
D10-----10--10-10--10-10--10-10--10-10--10-10--10-10-----|
A|---------------------------|---------------------------|
E|---------------------------|---------------------------|
e|------ ------ ------ ------|------ ------ ------ ------|
B|----1-------------1--------|----1-------------1--------|
G|----0-------------2--------|----0-------------2--------|
D|----2-------------3--------|----2-------------3--------|
A|3-------------3------------|3-------------3------------|
E|---------------------------|---------------------------|
e|8---8- 8---8- 8---8- 8---8-|8---8- 8---8- 8--8- 8------|
B|8---8--8---8-10--10-10--10-|8---8-10--10--8--8--8------|
G|9---9--9---9-10--10-10--10-|9---9-10--10--9--9--9------|
D10--10-10--10-10--10-10--10-10--10-10--10-10-10-10------|
A|---------------------------|---------------------------|
E|---------------------------|---------------------------|   

Ram on
e|------ ------ ------ ------|------ ------ ------ ------|
B|----1-------------1--------|----1------1---------------|
G|----0-------------2--------|----0------2---------------|
D|----2-------------3--------|----2------3---------------|
A|3-------------3------------|3-------------3------------|
E|---------------------------|---------------------------|     


01:50

e|----8- 8---8- 8---8- 8---8-|8---8- 8---8- 8---8- 8-----|
B|----9--9---9--9---9--9---9-|9---9--9---9--9---9--9-----|
G|---10-10--10-10--10-10--10-10--10-10--10-10--10-10-----|
D|---11-11--11-11--11-11--11-11--11-11--11-11--11-11-----|
A|---------------------------|---------------------------|
E|---------------------------|---------------------------|

give your
e|----8- ------ 8----- ------|------ ------ ------ ------|
B|----9---------9------------|---------------------------|
G|---10--------10------------|---------------------------|
D|---11--------11------------|---------------------------|
A|---------------------------|---------------------------|
E|---------------------------|---------------------------|
e|6----- 6---6- 6---6- 6-----|6---6- 6---6- 6---6- 6-----|
B|6------6---6--6---6--6-----|6---6--6---6--6---6--6-----|
G|6------6---6--6---6--6-----|6---6--6---6--6---6--6-----|
D|---------------------------|---------------------------|
A|---------------------------|---------------------------|
E|---------------------------|---------------------------|

heart to somebody,
e|----13 ------ 13---- ------|------ ------ ------ ------|
B|----11--------11-----------|---------------------------|
G|----10--------10-----------|---------------------------|
D|----11--------11-----------|---------------------------|
A|---------------------------|---------------------------|
E|---------------------------|---------------------------|

 Bbm

e|8----- 8---8- 8---8- 8---8-|8---8- 8---8- 8---8- 8---6-|
B|9------9---9--9---9--9---9-|9---9--9---9--9---9--9---6-|
G10-----10--10-10--10-10--10-10--10-10--10-10--10-10---6-|
D11-----11--11-11--11-11--11-11--11-11--11-11--11-11-----|
A|---------------------------|---------------------------|
E|---------------------------|---------------------------|

Soon, right away,
e|------ 8---11 ----8- 8-----|------ ------ ------ ------|
B|----9----------------------|--------------9------------|
G|10-------------------------|---------------------------|
D|---------------------------|---------------------------|
A|---------------------------|---------------------------|
E|---------------------------|---------------------------|
e|6---6- 6---6- 6---6- 6---6-|6---6- 6---6- 6---6- 6-----|
B|6---6--6---6--6---6--6---6-|6---6--6---6--6---6--6-----|
G|6---6--6---6--6---6--6---6-|6---6--6---6--6---6--6-----|
D|---------------------------|---------------------------|
A|---------------------------|---------------------------|
E|---------------------------|---------------------------|

right away.
e|------ 9---13 ------ ------|------ ------ ------ ------|
B|----11---------------11----|--------------11-----------|
G|10-------------------------|---------------------------|
D|---------------------------|---------------------------|
A|---------------------------|---------------------------|
E|---------------------------|---------------------------|


02:05
e|8---8- 8----- 8----- 8---8-|8---8- 8---8- 8---8- 8---8-|
B|8---8--8-----10-----10--10-|8---8--8--10-10--10-10--10-|
G|9---9--9-----10-----10--10-|9---9--9--10-10--10-10--10-|
D10--10-10-----10-----10--10-10--10-10--10-10--10-10--10-|
A|---------------------------|---------------------------|
E|---------------------------|---------------------------|

Dum dum dum deedum dum dum dum dee
e|------ 12--15 ------ 13----|12---- ------ ------ ------|
B|----13---------------------|-----------13--------------|
G|12-------------------------|------------------12-10----|
D|---------------------------|---------------------------|
A|---------------------------|---------------------------|
E|---------------------------|---------------------------|
e|8---8- 8---8- 8---8- 8-----|8---8- 8---8- 8----- ------|
B|8---8--8---8-10--10-10-----|8--10-10--10--8------------|
G|9---9--9---9-10--10-10-----|9--10-10--10--9------------|
D10--10-10--10-10--10-10-----10--10-10--10-10------------|


A Bbm Bbm7 C C#maj7 C#maj9 Cm7 D E F G
variations - click chord images
Transpose chords:
Tuning:
Cool service:
View: Size:
A  A  A
Rating:
Layout:
  • Currently 0/5 Stars.
  • 1
  • 2
  • 3
  • 4
  • 5
 
Accuracy:
  • Currently 0/5 Stars.
  • 1
  • 2
  • 3
  • 4
  • 5
 
click stars to rate
Chordie recommends:
Learn how to play guitar at JamPlay.com
Songbook:
Login to add this song to your songbook
Support the artist
Preview/buy this song
MSN Music
Why this non-profit ad?

 
login to add comments/video/corrections