Too Many People

Paul McCartney

--------------------------------------------------------

PAUL McCARTNEY - TOO MANY PEOPLE. From RAM album.
Released 17th April 1971.

--------------------------------------------------------


Tabbed by:PJVillanueva

Piece of cake!
Ooooh

Too many people going underground
Too many reaching for a piece of cake
Too many people pulled and pushed around
Too many waiting for that lucky break

That was your first mistake
You took your lucky break and broke it in two
Now what can be done for you
You broke it in two

Too many people sharing party lines
Too many people never sleeping late
Too many people paying parking fines
Too many hungry people losing weight

That was your first mistake
You yook your lucky break and broke it in two
Now what can be done for you
You broke it in two
Ooooh

Too many people preaching practices
Don't let them tell you what you wanna be
Too many people holding back, this is
Crazy and maybe it's not like me

That was your last mistake
I find my love awake and waiting to be
Now what can be done for you
She's waiting for me, yeah

The Intro is played in standard tuning, but the rythm guitar
is played with E string tuned to D.

Hold G note with ring finger and mute A string
 GG7CGadd9+5
e|-------- -------- -------- --------|-------- -------- -------- --------|
B|0---0----0---0----0---0----0---0---|1---1----1---1---------------------|
G|0---0----0---0----0---0----0---0---|0---0----0---0----2---2----2---2---|
D|0---0----0---0----3---3----3---3---|2---2----2---2----1---1----1---1---|
A|-----------------------------------|-----------------------------------|
E|3---3----3---3----3---3----3---3---|3---3----3---3----3---3----3---3---|

Piece cake!
of

 GCGadd9+5
e|-------- -------- -------- --------|-------- -------- -------- --------|
B|0---0----0---0----0---0----0---0---|1---1----1---1---------------------|
G|0---0----0---0----0---0----0---0---|0---0----0---0----2---2----2---2---|
D|0---0----0---0----3---3----3---3---|2---2----2---2----1---1----1---1---|
A|-----------------------------------|-----------------------------------|
E|3---3----3---3----3---3----3---3---|3---3----3---3----3---3----3---3---|

Oooooooooooooooooooooooooo
e|-------- -------- -------- --------|-------- -------- -------- --------|
B|8----------------------------------|-----------------------------------|
G|-----------------------------------|-----------------------------------|
D|5----------------------------------|-----------------------------------|
A|-----------------------------------|-----------------------------------|
D|-----------------------------------|-----------------------------------|

.......................................................................

 GGadd9+5
e|-------- -------- -------- ----3---|-------- -------- -------- ----3---|
B|0---0----0---0----0---0----0---0---|-------------------------------0---|
G|0---0----0---0----0---0----0---0---|2---2----2---2----2---2----2---2---|
D|0---0----0---0----0---0----0-------|1---1----1---1----1---1----1-------|
A|-----------------------------------|-----------------------------------|
E|3---3----3---3----3---3----3-------|3---3----3---3----3---3----3-------|

oooooooooooooohhh ooooooooooooh
e|-------- -------- -------- --------|-------- -------- -------- --------|
B|-----------------------------------|-----------------------------------|
G|-----------------------------------|-----------------------------------|
D|-----------------------------------|-----------------------------------|
A|---------------------------2---5---|6----------------------------------|
D|-------------0--------5------------|-----------------------------------|


 GGadd9+5
e|-------- -------- -------- ----3---|-------- -------- -------- --------|
B|0---0----0---0----0---0----0---0---|-----------------------------------|
G|0---0----0---0----0---0----0---0---|2---2----2---2----2---2----2---2---|
D|0---0----0---0----0---0----0-------|1---1----1---1----1---1----1---1---|
A|-----------------------------------|-----------------------------------|
E|3---3----3---3----3---3----3-------|3---3----3---3----3---3----3---3---|

oooooooooooooooooooooooooooohhh
e|-------- -------- -------- --------|-------- -------- -------- --------|
B|-----------------------------------|-----------------------------------|
G|-----------------------------------|-----------------------------------|
D|-----------------------------------|-----------------------------------|
A|---------------------------2---5---|6----------------------------------|
D|-------------0--------5------------|-----------------------------------|


 G
e|3------- ----3--- 3------- --------|3---3--- ----3--- 3------- --------|
B|0------------0----0----------------|0---0--------0----0----------------|
G|0------------0----0----------------|0---0--------0----0----------------|
D|0------------0----0----------------|0---0--------0----0----------------|
A|2------------2----2----------------|2---2--------2----2----------------|
E|3------------3----3----------------|3---3--------3----3----------------|
e|7------- ----7--- 7------- --------|7---7--- ----7--- 7------- --------|
B|8------------8----8----------------|8---8--------8----8----------------|
G|7------------7----7----------------|7---7--------7----7----------------|
D|0------------0----0----------------|0---0--------0----0----------------|
A|-----------------------------------|-----------------------------------|
D|-----------------------------------|-----------------------------------|


00:27
 FCDG

e|1---1--- 1---1--- 0---0--- 0---0---|-------- -------- -------- --------|
B|1---1----1---1----1---1----1---1---|3---3----3---3----0---0----0---0---|
G|2---2----2---2----0---0----0---0---|2---2----2---2----0---0----0---0---|
D|3---3----3---3----2---2----2---2---|0---0----0---0----0---0----0---0---|
A|3---3----3---3----3---3----3---3---|0---0----0---0---------------------|
D|3---3----3---3---------------------|0---0----0---0----5---5----5---5---|

(T) Too many people going underground

 FCDG
e|1---1--- 1---1--- 0---0--- 0---0---|-------- -------- -------- --------|
B|1---1----1---1----1---1----1---1---|3---3----3---0----0-0-0----0---0---|
G|2---2----2---2----0---0----0---0---|2---2----2---0----0-0-0----0---0---|
D|3---3----3---3----2---2----2---2---|0---0----0---0----0-0-0----0---0---|
A|3---3----3---3----3---3----3---3---|0---0----0-------------------------|
D|3---3----3---3---------------------|0---0----0---5----5-5-5----5---5---|

(T) Too many reaching for a piece cake
of

 FCDG
e|1---1--- 1---1--- 0---0--- 0---0---|-------- -------- -------- --------|
B|1---1----1---1----1---1----1---1---|3---3----3--------0---0----0---0---|
G|2---2----2---2----0---0----0---0---|2---2----2--------0---0----0---0---|
D|3---3----3---3----2---2----2---2---|0---0----0--------0---0----0---0---|
A|3---3----3---3----3---3----3---3---|0---0----0-------------------------|
D|3---3----3---3---------------------|0---0----0--------5---5----5---5---|

(T) Too many people pulled pushed around
 and

 FCDG
e|1---1--- 1---1--- 0---0--- 0---0---|-------- -------- -------- --------|
B|1---1----1---1----1---1----1---1---|3---3----3---0---------------------|
G|2---2----2---2----0---0----0---0---|2---2----2---0---------------------|
D|3---3----3---3----2---2----2---2---|0---0----0---0---------------------|
A|3---3----3---3----3---3----3---3---|0---0----0-------------------------|
D|3---3----3---3---------------------|0---0----0---5---------------------|

(T) Too many waiting for that lucky break

00:46
 GG7CGadd9+5
e|-------- -------- -------- --------|-------- -------- -------- --------|
B|0---0----0---0----0---0----0---0---|1---1----1---1---------------------|
G|0---0----0---0----0---0----0---0---|0---0----0---0----2---2----2---2---|
D|0---0----0---0----3---3----3---3---|2---2----2---2----1---1----1---1---|
A|-----------------------------------|-----------------------------------|
E|3---3----3---3----3---3----3---3---|3---3----3---3----3---3----3---3---|

That was your first mistake

 GG7CGadd9+5
e|-------- -------- -------- --------|-------- -------- -------- --------|
B|0---0----0---0----0---0----0---0---|1---1----1---1---------------------|
G|0---0----0---0----0---0----0---0---|0---0----0---0----2---2----2---2---|
D|0---0----0---0----3---3----3---3---|2---2----2---2----1---1----1---1---|
A|-----------------------------------|-----------------------------------|
E|3---3----3---3----3---3----3---3---|3---3----3---3----3---3----3---3---|

You took lucky break and broke it in two
your
e|-------- -------- -------- --------|-------- -------- -------- --------|
B|8----------------------------------|-----------------------------------|
G|-----------------------------------|-----------------------------------|
D|5----------------------------------|-----------------------------------|
A|-----------------------------------|-----------------------------------|
D|-----------------------------------|-----------------------------------|

.......................................................................

 GGadd9+5

e|-------- -------- -------- ----3---|-------- -------- -------- ----3---|
B|0---0----0---0----0---0----0---0---|-------------------------------0---|
G|0---0----0---0----0---0----0---0---|2---2----2---2----2---2----2---2---|
D|0---0----0---0----0---0----0-------|1---1----1---1----1---1----1-------|
A|-----------------------------------|-----------------------------------|
E|3---3----3---3----3---3----3-------|3---3----3---3----3---3----3-------|

Now what can be
e|-------- -------- -------- --------|-------- -------- -------- --------|
B|-------------------------------3---|3B4--~-----------------------------|
G|---------------------------4-------|-----------------------------------|
D|----------------------5------------|-----------------------------------|
A|-------------3/5-------------------|-----------------------------------|
E|-----------------------------------|-----------------------------------|


 GGadd9+5
e|-------- -------- -------- ----3---|-------- -------- -------- --------|
B|0---0----0---0----0---0----0---0---|-----------------------------------|
G|0---0----0---0----0---0----0---0---|2---2----2---2----2---2----2---2---|
D|0---0----0---0----0---0----0-------|1---1----1---1----1---1----1---1---|
A|-----------------------------------|-----------------------------------|
E|3---3----3---3----3---3----3-------|3---3----3---3----3---3----3---3---|

done for you you broke it in two
e|-------- -------- -------- --------|-------- -------- -------- --------|
B|-------------------------------3---|3B4--~-----------------------------|
G|---------------------------4-------|-----------------------------------|
D|----------------------5------------|-----------------------------------|
A|-------------3/5-------------------|-----------------------------------|
E|-----------------------------------|-----------------------------------|


 G
e|3------- ----3--- 3------- --------|3---3--- ----3--- 3------- --------|
B|0------------0----0----------------|0---0--------0----0----------------|
G|0------------0----0----------------|0---0--------0----0----------------|
D|0------------0----0----------------|0---0--------0----0----------------|
A|2------------2----2----------------|2---2--------2----2----------------|
E|3------------3----3----------------|3---3--------3----3----------------|
e|7------- ----7--- 7------- --------|7---7--- ----7--- 7------- --------|
B|8------------8----8----------------|8---8--------8----8----------------|
G|7------------7----7----------------|7---7--------7----7----------------|
D|0------------0----0----------------|0---0--------0----0----------------|
A|-----------------------------------|-----------------------------------|
D|-----------------------------------|-----------------------------------|
e|-------- -------- -------- --------|-------- -------- -------- --------|
B|-----------------------------------|-----------------------------------|
G|-----------------------------------|-----------------------------------|
D|-----------------------------------|------------------7----------------|
A|-----------------------------------|-----------------------------------|
E|-----------------------------------|-----------------------------------|


01:12

e|1---1--- 1---1--- 0---0--- 0---0---|-------- -------- -------- --------|
B|1---1----1---1----1---1----1---1---|3---3----3--------0---0----0---0---|
G|2---2----2---2----0---0----0---0---|2---2----2--------0---0----0---0---|
D|3---3----3---3----2---2----2---2---|0---0----0--------0---0----0---0---|
A|3---3----3---3----3---3----3---3---|0---0----0-------------------------|
D|3---3----3---3---------------------|0---0----0--------5---5----5---5---|

(T) Too many people sharing party lines
e|-------- -------- -------- --------|-------- -------- -------- --------|
B|-----------------------------------|-----RP------8----\----------------|
G|----------------------5----7---7B9-|----975----------------------------|
D|---------5/7-B-8-------------------|---------7---------------------7---|
A|-----------------------------------|-----------------------------------|
E|-----------------------------------|-----------------------------------|
e|1---1--- 1---1--- 0---0--- 0---0---|-------- -------- -------- --------|
B|1---1----1---1----1---1----1---1---|3---3----3---3----0---0----0---0---|
G|2---2----2---2----0---0----0---0---|2---2----2---2----0---0----0---0---|
D|3---3----3---3----2---2----2---2---|0---0----0---0----0---0----0---0---|
A|3---3----3---3----3---3----3---3---|0---0----0---0---------------------|
D|3---3----3---3---------------------|0---0----0---0----5---5----5---5---|

Too many people never sleeping late
e|-------- -------- -------- --------|-------- -------- -------- --------|
B|-----------------------------------|-----------------------------------|
G|5----------------------------------|-----------------------------------|
D|-----------------------------------|-----------------------------------|
A|-----------------------------------|-----------------------------------|
E|-----------------------------------|-----------------------------------|
e|1---1--- 1---1--- 0---0--- 0---0---|-------- -------- -------- --------|
B|1---1----1---1----1---1----1---1---|3---3----3--------0---0----0---0---|
G|2---2----2---2----0---0----0---0---|2---2----2--------0---0----0---0---|
D|3---3----3---3----2---2----2---2---|0---0----0--------0---0----0---0---|
A|3---3----3---3----3---3----3---3---|0---0----0-------------------------|
D|3---3----3---3---------------------|0---0----0--------5---5----5---5---|

Too many people paying parking fines

e|1---1--- 1---1--- 0---0--- 0---0---|-------- -------- -------- --------|
B|1---1----1---1----1---1----1---1---|3---3----3---0---------------------|
G|2---2----2---2----0---0----0---0---|2---2----2---0---------------------|
D|3---3----3---3----2---2----2---2---|0---0----0---0---------------------|
A|3---3----3---3----3---3----3---3---|0---0----0-------------------------|
D|3---3----3---3---------------------|0---0----0---5---------------------|           

Too many hungry people losing weight

01:32

e|-------- -------- -------- --------|-------- -------- -------- --------|
B|0---0----0---0----0---0----0---0---|1---1----1---1---------------------|
G|0---0----0---0----0---0----0---0---|0---0----0---0----2---2----2---2---|
D|0---0----0---0----3---3----3---3---|2---2----2---2----1---1----1---1---|
A|-----------------------------------|-----------------------------------|
E|3---3----3---3----3---3----3---3---|3---3----3---3----3---3----3---3---|

That was your first mistake

e|-------- -------- -------- --------|-------- -------- -------- --------|
B|0---0----0---0----0---0----0---0---|1---1----1---1---------------------|
G|0---0----0---0----0---0----0---0---|0---0----0---0----2---2----2---2---|
D|0---0----0---0----3---3----3---3---|2---2----2---2----1---1----1---1---|
A|-----------------------------------|-----------------------------------|
E|3---3----3---3----3---3----3---3---|3---3----3---3----3---3----3---3---|

You took lucky break and broke it in two
your
e|-------- -------- -------- --------|-------- -------- -------- --------|
B|8----------------------------------|-----------------------------------|
G|-----------------------------------|-----------------------------------|
D|5----------------------------------|-----------------------------------|
A|-----------------------------------|-----------------------------------|
D|-----------------------------------|-----------------------------------|

.......................................................................

e|-------- -------- -------- ----3---|-------- -------- -------- ----3---|
B|0---0----0---0----0---0----0---0---|-------------------------------0---|
G|0---0----0---0----0---0----0---0---|2---2----2---2----2---2----2---2---|
D|0---0----0---0----0---0----0-------|1---1----1---1----1---1----1-------|
A|-----------------------------------|-----------------------------------|
E|3---3----3---3----3---3----3-------|3---3----3---3----3---3----3-------|

Now what can be
e|-------- -------- -------- --------|-------- -------- -------- --------|
B|-----------------------------------|-----------------------------------|
G|-----------------------------------|-----------------------------------|
D|-----------------------------------|-----------------------------------|
A|---------------------------2---5---|6--~-------------------------------|
D|-------------0--------5------------|-----------------------------------|   


(Index barred chord)
 Gadd9+5sus4
e|-------- -------- -------- ----3---|3---3--- 3---3--- 3------- 3---3---|
B|0---0----0---0----0---0----0---0---|1---1----1---1----1--------1---1---|
G|0---0----0---0----0---0----0---0---|2---2----2---2----2--------2---2---|
D|0---0----0---0----0---0----0-------|1---1----1---1----1--------1---1---|
A|-----------------------------------|-----------------------------------|
E|3---3----3---3----3---3----3-------|3---3----3---3----3--------3---3---|    

done for you you broke it in two
e|-------- -------- -------- --------|-------- -------- -------- --------|
B|-----------------------------------|-----------------------------------|
G|-----------------------------------|-----------------------------------|
D|-----------------------------------|-----------------------------------|
A|---------------------------2---5---|6--~-------------------------------|
D|-------------0--------5------------|-----------------------------------|
e|3------- ----3--- 3------- --------|3---3--- ----3--- 3------- --------|
B|0------------0----0----------------|0---0--------0----0----------------|
G|0------------0----0----------------|0---0--------0----0----------------|
D|0------------0----0----------------|0---0--------0----0----------------|
A|2------------2----2----------------|2---2--------2----2----------------|
E|3------------3----3----------------|3---3--------3----3----------------|

Oooooohh
e|7------- ----7--- 7------- --------|7---7--- ----7--- 7------- --------|
B|8------------8----8----------------|8---8--------8----8----------------|
G|7------------7----7----------------|7---7--------7----7----------------|
D|0------------0----0----------------|0---0--------0----0----------------|
A|-----------------------------------|-----------------------------------|
D|-----------------------------------|-----------------------------------|


01:57
 AmEm
e|0---0--- 0---0--- 0---0--- 0---0---|0---0--- 0---0--- 0---0--- 0---0---|
B|1---1----1---1----1---1----1---1---|0---0----0---0----0---0----0---0---|
G|2---2----2---2----2---2----2---2---|0---0----0---0----0---0----0---0---|
D|2---2----2---2----2---2----2---2---|2---2----2---2----2---2----2---2---|
A|0---0----0---0----0---0----0---0---|2---2----2---2----2---2----2---2---|
D|-----------------------------------|2---2----2---2----2---2----2---2---|
e|-------- -------- -------- --------|-------- -------- -------- --------|
B|-------------------------------5/8-|------------12B13-R-12P8-----------|
G|---------5---7----7B9R7P5----------|----9-------------------9--7---9---|
D|----7----------------------7-------|-----------------------------------|
A|-----------------------------------|-----------------------------------|
E|-----------------------------------|-----------------------------------|


 GD

e|3---3--- 3---3--- 3---3--- 3---3---|2---2--- 2---2--- 2---2--- 2---2---|
B|0---0----0---0----0---0----0---0---|3---3----3---3----3---3----3---3---|
G|0---0----0---0----0---0----0---0---|2---2----2---2----2---2----2---2---|
D|0---0----0---0----0---0----0---0---|4---4----4---4----4---4----4---4---|
A|-----------------------------------|0---0----0---0----0---0----0---0---|
E|5---5----5---5----5---5----5---5---|0---0----0---0----0---0----0---0---|
e|-------- -------- --B---R- --------|----10-- ----10-- -------- --------|
B|8--------10B12----10121210-8-------|-----------------------------------|
G|-------------------------------9--B|11--------------------9-B-11--\----|
D|-----------------------------------|-----------------------------------|
A|-----------------------------------|-----------------------------------|
E|-----------------------------------|-----------------------------------|
e|0---0--- 0---0--- 0---0--- 0---0---|0---0--- 0---0--- 0---0--- 0---0---|
B|1---1----1---1----1---1----1---1---|0---0----0---0----0---0----0---0---|
G|2---2----2---2----2---2----2---2---|0---0----0---0----0---0----0---0---|
D|2---2----2---2----2---2----2---2---|2---2----2---2----2---2----2---2---|
A|0---0----0---0----0---0----0---0---|2---2----2---2----2---2----2---2---|
D|-----------------------------------|2---2----2---2----2---2----2---2---|
e|-------- -------- -------- --------|-------- -------- -------- --------|
B|-------------------------------8---|------------12B13R12-P-8-----------|
G|---------5---7----7B9R7P5----------|----9-------------------9--7---9---|
D|5/7------------------------7-------|-----------------------------------|
A|-----------------------------------|-----------------------------------|
E|-----------------------------------|-----------------------------------|
e|3---3--- 3---3--- 3---3--- 3---3---|2---2--- 2---2--- 2---2--- 2---2---|
B|0---0----0---0----0---0----0---0---|3---3----3---3----3---3----3---3---|
G|0---0----0---0----0---0----0---0---|2---2----2---2----2---2----2---2---|
D|0---0----0---0----0---0----0---0---|4---4----4---4----4---4----4---4---|
A|-----------------------------------|0---0----0---0----0---0----0---0---|
E|5---5----5---5----5---5----5---5---|0---0----0---0----0---0----0---0---|
e|-------- --B---B-P--B-R--- --------|----10-- -------- ----10-- --------|
B|8--10B11-101110118101110---8-------|-----------------------------------|
G|-------------------------------9--B|11-----------9--B-11-----------9--B|
D|-----------------------------------|-----------------------------------|
A|-----------------------------------|-----------------------------------|
E|-----------------------------------|-----------------------------------|


xxx xxx

e|3---3--- 3---3--- 3---3--- 3---3---|
B|0---0----0---0----0---0----0---0---|
G|0---0----0---0----0---0----0---0---|
D|0---0----0---0----0---0----0---0---|
A|-----------------------------------|
E|5---5----5---5----5---5----5---5---|
e|-------- -------- -------- --------|
B|-----------------------------------|
G|12--~------------------------------|
D|-----------------------------------|
A|-----------------------------------|
E|-----------------------------------|             


02:19

e|1---1--- 1---1--- 0---0--- 0---0---|-------- -------- -------- --------|
B|1---1----1---1----1---1----1---1---|3---3----3--------0---0----0---0---|
G|2---2----2---2----0---0----0---0---|2---2----2--------0---0----0---0---|
D|3---3----3---3----2---2----2---2---|0---0----0--------0---0----0---0---|
A|3---3----3---3----3---3----3---3---|0---0----0-------------------------|
D|3---3----3---3---------------------|0---0----0--------5---5----5---5---|

(T) Too many people preaching practices
e|-------- -------- -------- --------|-------- -------- -------- --------|
B|-----------------------------------|-----------------------------------|
G|-----------------------------------|------------------5B7--~-----------|
D|-----------------------------------|-----------------------------------|
A|-----------------------------------|-----------------------------------|
E|-----------------------------------|-----------------------------------|
e|1---1--- 1---1--- 0---0--- 0---0---|-------- -------- -------- --------|
B|1---1----1---1----1---1----1---1---|3---3----3---3----0---0----0---0---|
G|2---2----2---2----0---0----0---0---|2---2----2---2----0---0----0---0---|
D|3---3----3---3----2---2----2---2---|0---0----0---0----0---0----0---0---|
A|3---3----3---3----3---3----3---3---|0---0----0---0---------------------|
D|3---3----3---3---------------------|0---0----0---0----5---5----5---5---|

Don't them tell what wanna be
let you you
e|-------- -------- -------- --------|-------- -------- ----3--- --------|
B|-----------------------------------|---------------------3--6--3-3-----|
G|\----------------------------------|------------------5B7----------5P3-|
D|-----------------------------------|-----------------------------------|
A|-----------------------------------|-----------------------------------|
E|-----------------------------------|-----------------------------------|
e|1---1--- 1---1--- 0---0--- 0---0---|-------- -------- -------- --------|
B|1---1----1---1----1---1----1---1---|3---3----3--------0---0----0---0---|
G|2---2----2---2----0---0----0---0---|2---2----2--------0---0----0---0---|
D|3---3----3---3----2---2----2---2---|0---0----0--------0---0----0---0---|
A|3---3----3---3----3---3----3---3---|0---0----0-------------------------|
D|3---3----3---3---------------------|0---0----0--------5---5----5---5---|

Too many people holding back, this is crazy
e|-------- -------- -------- --------|-------- -------- -------- --------|
B|-----------------------------------|-----------------------------------|
G|5/7--~-----------\5----------------|----------------------5/7--7-------|
D|-----------------------------------|-----------------------------------|
A|-----------------------------------|-----------------------------------|
E|-----------------------------------|-----------------------------------|
e|1---1--- 1---1--- 0---0--- 0---0---|-------- -------- -------- --------|
B|1---1----1---1----1---1----1---1---|3---3----3---0---------------------|
G|2---2----2---2----0---0----0---0---|2---2----2---0---------------------|
D|3---3----3---3----2---2----2---2---|0---0----0---0---------------------|
A|3---3----3---3----3---3----3---3---|0---0----0-------------------------|
D|3---3----3---3---------------------|0---0----0---5---------------------|           

and maybe it's not like me
e|-------- -------- -------- --------|-------- -------- -------- --------|
B|-----------------------------------|-----------------------------------|
G|---------------------5/7\5---3-3B5-|------------/-7------2H4P2P0-------|
D|-----------------------------------|------------------------------2----|
A|-----------------------------------|-----------------------------------|
E|-----------------------------------|-----------------------------------|


01:32

e|-------- -------- -------- --------|-------- -------- -------- --------|
B|0---0----0---0----0---0----0---0---|1---1----1---1---------------------|
G|0---0----0---0----0---0----0---0---|0---0----

Am C D Em F G G7
variations - click chord images
Transpose chords:
Tuning:
Cool service:
View: Size:
A  A  A
Rating:
Layout:
  • Currently 5/5 Stars.
  • 1
  • 2
  • 3
  • 4
  • 5
 
Accuracy:
  • Currently 5/5 Stars.
  • 1
  • 2
  • 3
  • 4
  • 5
 
click stars to rate
Chordie recommends:
Learn to play guitar with video-based, online guitar lessons at JamPlay.com
Songbook:
Login to add this song to your songbook
Support the artist
Preview/buy this song
MSN Music
Why this non-profit ad?

 
login to add comments/video/corrections