"yes"; ?> Doubting Thomas by Nickel Creek - guitar chords, guitar tabs and lyrics - chordie

Doubting Thomas

Nickel Creek

-------------------------------------------------------------------------------

-------------------------------------------------------------------------------

 FCFC
e|------------------0==------------|------------------3==------------|
B|-1==-------1===--------1---1-----|-1==-------1===--------1---1-----|
G|-------2-------------------------|-------2-------------------------|
D|-----3-------(3)-----2-------2==-|-----3-------(3)-----2-------2==-|
A|------------------3==----3-------|------------------3==----3-------|
E|-1==-----1-----------------------|-1==-----1-----------------------|


 F
e|------------------7==------------|-8===----8===----8===----8======-|
B|-1==-------1===-------(0)-(0)----|--------(8)==---(8)==---(8)=====-|
G|-------2-------------------------|---------------------------------|
D|-----3-------(3)-----(0)----(0==)|---------------------------------|
A|------------------5==------------|---------------------------------|
E|-1==-----1--------------(3)------|-8===-------(8)==---(8)==---(8)=-| 


VERSE

 CFCF
e|---------------------------------|---------------------------------|
B|-1==---1---1-----1==---1---1-----|-1==---1---1-----1==---1---1-----|
G|---------------------------------|---------------------------------|
D|-----2-------2==-----3-------3==-|-----2-------2==-----3-------3==-|
A|-3==-----3---------------3-------|-3==-----3---------------3-------|
E|-----------------1==-------------|-----------------1==-------------|

1.What will be left when I've drawn my last breath
2.Will I discover a soul-saving love or

 AmFGG
e|---------------------------------|---------------------------------|
B|-1==---1---1-----1==---1---1-----|-1==---1---1---0====-------------|
G|---------------------------------|-------------------------0==-----|
D|-----2-------2==-----3-------3==-|-----0-------0-------0==-----0==-|
A|-0==-----0---------------3-------|---------------------------------|
E|-----------------1==-------------|-3==-----3-------3==-----3==-----|

besides the folks I've met and the folks who know me?
just the dirt above and below me?

CHORUS:

 FCFC
e|---------------------------------|---------------------------------|
B|-1==---1---1-----1==---1---1-----|-1==---1---1-----1==---1---1-----|
G|---------------------------------|---------------------------------|
D|-----3-------3==-----3-------3==-|-----3-------3==-----3-------3==-|
A|---------3-------3==-------------|---------3-------3==-------------|
E|-1==---------------------0==-----|-1==---------------------0==-----|

I'm a doubting thomas I took a promise

 FGCCadd9
e|---------------------------------|---------------------------------|
B|-1==---1---1-----0==---0---0-----|-1==---1---1-----1h3---1---1-----|
G|---------------------------------|---------------------------------|
D|-----3-------3==-----0-------0==-|-----2-------2==-----0-------0==-|
A|---------3-----------------------|-3==-----3-------1==-----1-------|
E|-1==-------------3==-----3==-----|---------------------------------|

But I do not feel safe

 AmGFC
e|---------------------------------|------------------0==------------|
B|-1==---1---1-----0==---0---0-----|-1==-------1===--------1---1-----|
G|---------------------------------|-------2-------------------------|
D|-----2-------2==-----0-------0==-|-----3-------(3)-----2-------2==-|
A|-0==-----0---------------0-------|------------------3==----3-------|
E|-----------------3==-------------|-1==-----1-----------------------|

Oh me of little faith

 FC
e|------------------3==------------|------------------7==------------|
B|-1==-------1===--------1---1-----|-1==-------1===-------(0)-(0)----|
G|-------2-------------------------|-------2-------------------------|
D|-----3-------(3)-----2-------2==-|-----3-------(3)-----(0)----(0==)|
A|------------------3==----3-------|------------------5==------------|
E|-1==-----1-----------------------|-1==-----1--------------(3)------|


 F
e|-8===----8===----8===----8======-| Note 1: Drop this measure after
B|--------(8)==---(8)==---(8)=====-|         the 2nd chorus and go
G|---------------------------------|         straight into the bridge
D|---------------------------------|
A|---------------------------------| Note 2: End the song with the
E|-8===-------(8)==---(8)==---(8)=-|         1st note of the measure.


BRIDGE

G# G# (x2) Am Am (x2)
e|---------------------------------|---------------------------------|
B|-------4-------4-------4-------4-|-------5-------5-------5-------5-|
G|---5-------5-------5-------5-----|---5-------5-------5-------5-----|
D|-----6-------6-------6-----------|-----7-------7-------7-------7---|
A|-6---------------6-----------6---|-7---------------7---------------|
E|---------4---------------4-------|---------5---------------5-------|

Can I be used to help others... When I'm scared I'll find truth...

Capo: I

Intro: F C, F C, F G C

 CFCF
 what will be left when i've drawn my last breath,
 AmFGG
besides the folks i've met and the folks who know me, 
 CFCF
 will i discover a soul saving love, (or)
 AmFGG
or just the dirt above and below me,  

 FC
i'm a doubting thomas,
 FC
    i took a promise,
 FGCCadd9
    but i do not feel safe,  
Am G F C, F C, F G C (like intro)
oh me of little faith,

 CFCF
 sometimes i pray for a slap in the face,
 AmFG
then i beg to be spared 'cause i'm a coward,

 CFCF
if there's a master of death i'll bet he's holding his breath,
 AmFG
as i show the blind and tell the deaf about his power,

 FC
i'm a doubting thomas,
 FC
    i can't keep my promises,
 FGCCadd9
    'cause i don't know what's safe,   
Am G F C, F C, F G
oh me of little faith

(BRIDGE)
 G#
 can i be used to help others find truth,
 Am
 when i'm scared i'll find proof that its a lie,
 G#
 can i be lead down a trail dropping bread crumbs,
 Am
 that prove i'm not ready to die,

 CFCF
 please give me time to decipher the signs,
 AmFGGGG
please forgive me for time that i've waaaaaaaasted,

 FC
i'm a doubting thomas,
 FC
    i'll take your promise,
 FGCCadd9
    though i know nothin's safe,   
Am G F C, F C, F G C
oh me of little faith oh me of little faith

END

+--------------------------------------------------------------------------+

| This file is the author's own work and represents their interpretation |
| of the song. You may only use this file for private study, scholarship, |
| or research. |
+--------------------------------------------------------------------------+


Ultimate-Guitar.Com © 2005


Am C Cadd9 F G G#
variations - click chord images
Transpose chords:
Tuning:
Cool service:
View: Size:
A  A  A
Rating:
Layout:
  • Currently 1.7/5 Stars.
  • 1
  • 2
  • 3
  • 4
  • 5
 
Accuracy:
  • Currently 5/5 Stars.
  • 1
  • 2
  • 3
  • 4
  • 5
 
click stars to rate
Chordie recommends:
Learn to play this song & others via video guitar lessons at JamPlay.com
Songbook:
Login to add this song to your songbook
Support the artist
Preview/buy this song
MSN Music
Why this non-profit ad?

 
login to add comments/video/corrections

toadocean (report comment to admin):
http://www.ultimate-guitar.com/print.phpreplaceqmarkwhat=tab&id=371294

the tab work is hard to read

71.219.70.150