"yes"; ?> Calico Skies by Paul McCartney - guitar chords, guitar tabs and lyrics - chordie

Calico Skies

Paul McCartney

----------------------------------------------------------

----------------------------------------------------------

 DDmaj9GDGD
e|10----1010-- 9---7-------|5----------- 3---2-------|
B|10----1010---10--8-------|7-----7-7----3---3---3---|
G|11----1111---9---7---0---|7-----7-7----4---2---2---|
D|0------------0---0---0---|0------------0---0---0---|
A|-------------------------|-------------------------|
E|-------------------------|-------------------------|


 DDmaj9GDD6GD
e|----101010-- 9---7-------|5---7---3--- 2-----------|
B/10--101010---10--8-------|7-------3----3---3-3-3---|
G/11--111111---9---7---0---|7-------4----2---2-2-2---|
D|0------------0---0---0---|0-------0----0-----------|
A|-------------------------|-------------------------|
E|-------------------------|-------------------------|      


00:08

e|------------ 9---7-------|5----------- 3---2-------|
B|------1010---10--8-------|7---7-7-7----3---3---3-3-|
G/11----1111---9---7---0---|7---7-7-7----4---2---2-2-|
D|0------------0---0---0---|0------------0---0-------|
A|-------------------------|-------------------------|
E|-------------------------|-------------------------|

It was written that would love you
I

e|------------ 9---7-------|5---7---3--- 2-----------|
B|------10-----10--8-------|7-------3----3---3-3-3---|
G/11------11---9---7-------|7-------4----2---2-2-2---|
D|0--------0---0---0-------|0-------0----0-----------|
A|-------------------------|-------------------------|
E|-------------------------|-------------------------|          

From moment I opened my eyes
the

e|------------ 9---7-------|5----------- 3---2-------|
B|-------------10--8-------|7------------3---3---3---|
G|7-----0-0----9---7---0---|7---7--------4---2---2---|
D|0-------0----0---0---0---|0---0--------0---0-------|
A|-------------------------|-------------------------|
E|-------------------------|-------------------------|

And morning when I first you
the saw

e|------------ 9---7-------|5---7---3--- 2-----------|
B|------10-----10--8---7---|7-------3----3---3-3-3---|
G/11-----------9---7---7---|7-------4----2---2-2-2---|
D|0------------0---0-------|0-------0----0-----------|
A|-------------------------|-------------------------|
E|-------------------------|-------------------------|

gave life under Calico skies.
me

00:24
 DGG6
e|------------ ------------|------------ 0-----------|
B|--------3----------3-3---|------3-3----------------|
G|--------2----------2-2---|------0-0----------------|
D|--------0----------0-0---|------0-0----------------|
A|-------------------------|-------------------------|
E|2------------2-----------|3------------3-------4---|

I will hold you

 AA13A7A13ABmBm7G
e|------------ 0-----------|------------ ------------|
B|2-------3--------3---2---|3------------3-----0-0---|
G|-------------0-----------|----4-4-4----------0-0---|
D|2-------4--------4---2---|----4-4-4----------0-0---|
A|0------------0-----------|2------------0-----------|
E|-------------------------|-------------------------|

for as long as you like I'll

 G6AA13A7A13
e|------------ 0-----------|------------ 0-----------|
B|----3-3-3--------3-3-----|2-------3--------3-------|
G|----0-0-0--------0-0-----|-------------0-----------|
D|----0-0-0--------0-0-----|2-------4--------4-------|
A|-------------------------|0------------------------|
E|3------------3-------4---|-------------------------|

hold you for the rest of my

 D
e1/2---------- 2-----------|
B|----3---3--------3-3-3---|
G1/2--2---2--------2-2-2---|
D|0------------0-----------|
A|-------------------------|
E|-------------------------|

life

00:39

e|----101010-- 9---7-------|5-----5----- 3---2-------|
B/10--101010---10--8-------|7---7-7------3---3---3---|
G/11--111111---9---7---0---|7---7-7------4---2---2---|
D|0------------0---0---0---|0------------0---0---0---|
A|-------------------------|-------------------------|
E|-------------------------|-------------------------|
e|------10---- 9---7-------|5---7---3--- 2-----------|
B/10--101010---10--8-------|7-------3----3---3-3-3---|
G/11--111111---9---7---0---|7-------4----2---2-2-2---|
D|0------------0---0---0---|0-------0----0-----------|
A|-------------------------|-------------------------|
E|-------------------------|-------------------------|           


00:48

e|------------ 9---7-------|5----------- 3---2-------|
B|------1010---10--8-------|7---7---7----3---3---3-3-|
G/11----1111---9---7---0---|7---7---7----4---2---2-2-|
D|0------------0---0---0---|0------------0---0-------|
A|-------------------------|-------------------------|
E|-------------------------|-------------------------|

Always looking for to you
ways love

e|------------ 9---7-------|5---7---3--- 2-----------|
B|----10-------10--8---7---|7-------3----3---3-3-3---|
G/11--11-------9---7---7---|7-------4----2---2-2-2---|
D|0------------0---0-------|0-------0----0-----------|
A|-------------------------|-------------------------|
E|-------------------------|-------------------------|          

Never failing to fight your side
at

e|------10---- 9---7-------|5----------- 3---2-------|
B|----10-------10--8-------|7---7--------3---3---3-3-|
G/11-----------9---7---0---|7---7--------4---2---2-2-|
D|0------------0---0---0---|0---0--------0---0-------|
A|-------------------------|-------------------------|
E|-------------------------|-------------------------|          

While angels of love protect us
the

e|------------ 9---7-------|5---7---3--- 2-----------|
B|----10--10---10--8-------|7-------3----3---3-3-----|
G/11--11-------9---7---0---|7-------4----2---2-2-----|
D|0------------0---0---0---|0-------0----0-----------|
A|-------------------------|-------------------------|
E|-------------------------|-------------------------|

From innermost secrets we hide
the

01:04

e|0-----------|------------ 0-----------|
B|------3-3---|----3---3----------0-----|
G|------2-2---|----0---0----------0-----|
D|------0-0---|----0---0----------0-----|
A|------------|-------------------------|
E|2-----------|3------------3-------4---|

I'll hold you

e|------------ 0-----------|------------ ------------|
B|2-------3--------3---2---|3------------3---0-0-0---|
G|-------------0-----------|4---4---4--------0-0-0---|
D|2-------4--------4---2---|4---4---4--------0-0-0---|
A|0-------0----0-----------|2------------0-----------|
E|-------------------------|-------------------------|               

for as long as you like I'll

e|------------ 0-----------|------------ 0-----------|
B|3-----3-3--------3-3-----|2-------3--------3---2---|
G|0-----0-0--------0-0-----|-------------0-----------|
D|0-----0-0--------0-0-----|2-------4--------4---2---|
A|-------------------------|0------------0-----------|
E|3------------3-------4---|-------------------------|                 

hold you for the rest of my

e|----101010-- 9---7-------|5-----5----- 3---2-------|
B/10--101010---10--8-------|7---7-7------3---3---3---|
G/11--111111---9---7---0---|7---7-7------4---2---2---|
D|0------------0---0---0---|0------------0---0---0---|
A|-------------------------|-------------------------|
E|-------------------------|-------------------------|              

life

e|------10---- 9---7-------|5---7---3--- 2-----------|
B/10--1010-----10--8-------|7-------3----3-----3-3---|
G/11--1111-----9---7---0---|7-------4----2-----2-2---|
D|0------------0---0---0---|0-------0----0-----------|
A|-------------------------|-------------------------|
E|-------------------------|-------------------------|
e|----101010-- 9---7-------|5-----5----- 3---2-------|
B/10--101010---10--8-------|7---7-7-7----3---3---3---|
G/11--111111---9---7---0---|7---7-7-7----4---2---2---|
D|0------------0---0---0---|0------------0---0---0---|
A|-------------------------|-------------------------|
E|-------------------------|-------------------------|
e|------10---- 9---7-------|5---7---3--- 2-----------|
B/10--1010-----10--8-------|7-------3----3---3-3-3---|
G/11--1111-----9---7---0---|7-------4----2---2-2-2---|
D|0------------0---0---0---|0-------0----0-----------|
A|-------------------------|-------------------------|
E|-------------------------|-------------------------| 


01:32

e|------10---- 9---7-------|5----------- 3---2-------|
B|----1010-----10--8-------|7---7-7-7----3---3---3-3-|
G/11--1111-----9---7---0---|7---7-7-7----4---2---2-2-|
D|0------------0---0---0---|0------------0---0-------|
A|-------------------------|-------------------------|
E|-------------------------|-------------------------|

Long all of us, crazy soldiers
live

e|------------ 9---7-------|5---7------- 0H2---------|
B|----10-------10--8---7-7-|7------------3---3-3-3---|
G/11--11--11---9---7---7-7-|7------------2---2-2-2---|
D|0------------0---0-------|0-------0----0-----------|
A|-------------------------|-------------------------|
E|-------------------------|-------------------------|                               

who were under Calico skies
born

e|------------ 9---7-------|5----------- 3---2-------|
B|----10-------10--8-------|7---7-7-7----3---3---3-3-|
G/11------11---9---7---0---|7---7-7-7----4---2---2-2-|
D|0------------0---0---0---|0------------0---0-------|
A|-------------------------|-------------------------|
E|-------------------------|-------------------------|

May we be called to handle
never

e|------------ 9---7-------|5---7---3--- 2-----------|
B|----10-------10--8---7---|7-------3----3-----3-3---|
G/11-----------9---7---7---|7-------4----2-----2-2---|
D|0-------0----0---0-------|0-------0----0-----------|
A|--------0----------------|-------------------------|
E|-------------------------|-------------------------|

All the weapons of war we despise

01:49

e|0-----------|------------ 0-----------|
B|------3-3---|------3-3----------0-----|
G|------2-2---|------0-0----------0-----|
D|------0-0---|------0-0----------0-----|
A|------------|-------------------------|
E|2-----------|3------------3-------4---|

I'll hold you

e|------------ 0-----------|------------ 0-----------|
B|2-------3--------3---3---|3------------------0-0---|
G|-------------0-----------|4-----4-4----------0-0---|
D|2-------4--------4---4---|4-----4-4----------0-0---|
A|0-------0----0-----------|2------------0-----------|
E|-------------------------|-------------------------|

for as long as you like I'll

e|------------ 0-----------|------------ 0-----------|
B|------3-3--------3-3-----|2-------3--------3---3---|
G|------0-0--------0-0-----|-------------0-----------|
D|------0-0--------0-0-----|2-------4--------4---4---|
A|-------------------------|0------------0-----------|
E|3------------3-------4---|-------------------------|

hold you for the rest of my

e|------------ 0-----------|
B|3------------------0-0---|
G|----4-4-4----------0-0---|
D|----4-4-4----------0-0---|
A|2------------0-----------|
E|-------------------------|

life I'll

e|------------ 0-----------|------------ 0-----------|
B|----3-3-3----------3-----|2-------3--------3---3---|
G|----0-0-0----------0-----|-------------0-----------|
D|----0-0-0----------0-----|2-------4--------4---4---|
A|-------------------------|0------------0-----------|
E|3------------3-----------|-------------------------|

hold you for as long as you

e|------------ 0-----------|
B|3------------------0-0---|
G|------4-4----------0-0---|
D|------4-4----------0-0---|
A|2------------0-----------|
E|-------------------------|

like I'll

e|------------ 0-----------|------------ 0-----------|
B|----3-3-3----------3-3---|2---2---3--------3---2---|
G|----0-0-0----------0-0---|-------------0-----------|
D|----0-0-0----------0-0---|2---2---4--------4---2---|
A|-------------------------|0-------0----0---0---0---|
E|3------------3-----------|-------------------------|

love you for the rest of my

e|------------ 0-----------|
B|----2---3--------3---2---|
G|-------------0-----------|
D|----2---4--------4---2---|
A|----0---0----0---0---0---|
E|-------------------------|

for the rest of my

02:16
 DDmaj9GDGD
e|----101010-- 9---7-------|5----------- 3---2-------|
B/10--101010---10--8-------|7---7-7-7----3---3---3---|
G/11--111111---9---7---0---|7---7-7-7----4---2---2---|
D|0------------0---0---0---|0------------0---0---0---|
A|-------------------------|-------------------------|
E|-------------------------|-------------------------|

life

(.
 DDmaj9GDD6Dmaj9D

e|------10---- 9---7-------|5-H-7---9--- 10----------|
B/10--1010-----10--8-------|7-------10---10----------|
G/11--1111-----9---7---0---|7-------9----11----------|
D|0------------0---0---0---|0-------0----0-----------|
A|-------------------------|-------------------------|
E|-------------------------|-------------------------|


B Bend
R Release
/ Slide up
\ Slide down
H Hammer-on
P Pull-off
~ Vibrato
+ Harmonic
x Mute note
. Play note like a dot in standard notation
^ Ties two notes together
(. Pause

END

+--------------------------------------------------------------------------+

| This file is the author's own work and represents their interpretation |
| of the song. You may only use this file for private study, scholarship, |
| or research. |
+--------------------------------------------------------------------------+


Ultimate-Guitar.Com © 2005


A A13 A7 Bm Bm7 D D6 Dmaj9 G G6
variations - click chord images
Transpose chords:
Tuning:
Cool service:
View: Size:
A  A  A
Rating:
Layout:
  • Currently 0/5 Stars.
  • 1
  • 2
  • 3
  • 4
  • 5
 
Accuracy:
  • Currently 0/5 Stars.
  • 1
  • 2
  • 3
  • 4
  • 5
 
click stars to rate
Chordie recommends:
Get acoustic guitar lessons and electric guitar lessons at JamPlay.com
Songbook:
Login to add this song to your songbook
Support the artist
Preview/buy this song
MSN Music
Why this non-profit ad?

 
login to add comments/video/corrections