""; ?> Great Day by Paul McCartney - guitar chords, guitar tabs and lyrics - chordie

Great Day

Paul McCartney

--------------------------------------------------------

--------------------------------------------------------

 E7
e|------- 0------ 0------ 0------|------- 0------ 0------ -------|
B|3-------3-------3-------3---3--|----3-----------3-------3------|
G|4-------4-------4-------4------|4---------------4-------4------|
D|0---------------0--------------|0---------------0--------------|
A|-------------------------------|-------------------------------|
E|-------------------------------|-------------------------------|


 Dmaj9#5
e|------- ----0-- ------- -------|3------ ----0-- ----0-- 0------|
B|2-------2-------2---2---2------|2-------2-------2---2---2------|
G|3-------3-------3---3---3------|3-------3-------3---3---3------|
D|0---------------0--------------|0---------------0--------------|
A|-------------------------------|-------------------------------|
E|-------------------------------|-------------------------------|


 Amsus4D7sus4Amsus4
e|0------ ------- ------- 3------|0------ 0---0-- 0---0-- 0------|
B|1-------1-------1-------1------|1-------1---1---1---1---1------|
G|2-------2-------2-------2------|2-------2---2---2---2---2------|
D|0---------------0--------------|0---------------0--------------|
A|-------------------------------|-------------------------------|
E|-------------------------------|-------------------------------|


 Em7EEm7E
e|0------ 0------ 0------ 0---0--|0------ 0------ 0------ 0------|
B|0-------0-------0-------0---0--|0-------0-------0-------0------|
G|0-H-1---1-------0-H-1---1---1--|1-------1-------1-------1------|
D|0-H-2---2-------0-H-2---2---2--|2-------2-------2-------2------|
A|2-------2-------2-------2---2--|2-------2-------2-------2------|
E|0-------0-------0-------0---0--|0-------0-------0-------0------|         


00:11

e|------- 0---0-- ----0-- 0------|------- 0------ ----0-- 0------|
B|3-------3---3---3---3---3------|3-------3-------3---3---3------|
G|4-------4---4---4---4---4------|4-------4-------4---4---4------|
D|0---------------0--------------|0---------------0--------------|
A|-------------------------------|-------------------------------|
E|-------------------------------|-------------------------------|          

When you're wide awake

e|0------ ------- ------- -------|0------ ------- ------- 0------|
B|2-------2---2---2-------2------|2-------2---2---2---2---2------|
G|3-------3---3---3-------3------|3-------3-------3---3---3------|
D|0---------------0--------------|0---------------0--------------|
A|-------------------------------|-------------------------------|
E|-------------------------------|-------------------------------|                

Say it for goodness sake

e|0------ 0---0-- ------- 0------|0------ 0---0-- 0------ 0------|
B|1-------1---1-----------1------|1-------1---1---1-------1------|
G|2-------2---2-----------2------|2-------2---2---2-------2------|
D|0------------------------------|0---------------0--------------|
A|-------------------------------|-------------------------------|
E|-------------------------------|-------------------------------|

It's gonna be a great day.

e|0------ 0------ 0------ 0---0--|0------ 0---0-- 0------ 0------|
B|0-------0-------0-------0---0--|0-------0---0---0-------0------|
G|0H1-----1-------0H1-----1---1--|1-H-1---1---1---1-------1------|
D|0H2-----2-------0H2-----2---2--|2-H-2---2---2---2-------2------|
A|2-------2-------2-------2---2--|2-------2---2---2-------2------|
E|0-------0-------0-------0---0--|0-------0---0---0-------0------|               


00:23

e|------- 0------ 0------ -------|0---0-- 0------ 0------ 0------|
B|3-------3-------3--------------|3---3---3-------3-------3------|
G|4-------4-------4--------------|4---4---4-------4-------4------|
D|0---------------0--------------|0---------------0--------------|
A|-------------------------------|-------------------------------|
E|-------------------------------|-------------------------------|

While you're standing there

e|0------ 0---0-- 0---0-- 0------|0------ ------- ------- 0------|
B|2-------2---2---2---2---2------|2-------2-------2---2---2------|
G|3-------3---3---3---3---3------|3-------3-------3---3---3------|
D|0---------------0--------------|0---------------0--------------|
A|-------------------------------|-------------------------------|
E|-------------------------------|-------------------------------|                 

Get up and grab a chair,

e|0------ 0---0-- 0---0-- 0------|0------ 0---0-- ----0-- 0------|
B|1-------1---1---1---1---1------|1-------1---1-------1---1------|
G|2-------2---2---2---2---2------|2-------2---2---2---2---2------|
D|0---------------0--------------|0---------------0--------------|
A|-------------------------------|-------------------------------|
E|-------------------------------|-------------------------------|

It's gonna be a great day.

(.
 Em
e|------- ------- ------- 3------|------- ------- ------- -------|
B|0-------0---0---0--------------|-------------------------------|
G|1-------1---1---1--------------|-------------------------------|
D|2-------2---2---2--------------|-------------------------------|
A|2-------2---2---2--------------|-------------------------------|
E|0-------0---0---0-------0------|-------------------------------|         

And it won't be long,

00:34
 AD
e|------- ------- ------- -------|------- ------- ------- -------|
B|2-----------2---2-------3------|--------3-------3-------3------|
G|2-----------2---2-------2------|--------2-------2-------2------|
D|2-----------2---2-------4------|--------4-------4-------4------|
A|0-----------0---0-------0------|--------0-------0-------0------|
E|-------------------------------|-------------------------------|

Oh, no it

 A7D
e|------- ------- ------- -------|------- ------- ------- -------|
B|5-------5---5---5-------3------|----3---3-------3-------3---3--|
G|2-------2---2---2-------2------|----2---2-------2-------2---2--|
D|5-------5---5---5-------4------|----4---4-------4-------4---4--|
A|0-------0---0---0-------0------|----0---0-------0-------0---0--|
E|-------------------------------|-------------------------------|

won't be long It won't be long,

 EA
e|------- ------- ------- -------|------- ------- ------- -------|
B|-------------------------------|-------------------------------|
G|1---1---1---1---1-------2------|----2---2-------2-------2------|
D|2---2---2---2---2-------2------|----2---2-------2-------2------|
A|2---2---2---2---2-------4------|----4---4-------4-------4------|
E|0---0---0---0---0-------0------|----0---0-------0-------0------|

Oh, no it

 E7AE
e|------- ------- ------- -------|------- ------- ------- -------|
B|-------------------------------|-------------------------------|
G|4-------4-------4-------2------|--------2-------1-------1------|
D|2-------2-------2-------2------|--------2-------2-------2------|
A|5-------5-------5-------4------|--------4-------2-------2------|
E|0-------0-------0-------0------|--------0-------0-------0------|        

won't be long

e|------- ------- ------- -------|------- ------- ------- -------|
B|2-------2---2---2-------3------|----3---3-------3-------3------|
G|2-------2---2---2-------2------|----2---2-------2-------2------|
D|2-------2---2---2-------4------|----4---4-------4-------4------|
A|0-------0---0---0-------0------|----0---0-------0-------0------|
E|-------------------------------|-------------------------------|

Oh, no it

e|------- ------- ------- -------|------- ------- ------- -------|
B|5-----------5---5-------3------|----3---3-------3-------3------|
G|2-----------2---2-------2------|----2---2-------2-------2------|
D|5-----------5---5-------4------|----4---4-------4-------4------|
A|0-----------0---0-------0------|----0---0-------0-------0------|
E|-------------------------------|-------------------------------|              

won't be long it won't be long,

00:51
 E7
e|0---0-- 0------ 0------ 0---0--|----0-- 0------ 0------ 0------|
B|3---3---3-------3-------3---3--|----3---3-------3-------3------|
G|4---4---4-------4-------4---4--|----4---4-------4-------4------|
D|0---------------0--------------|0---------------0--------------|
A|-------------------------------|-------------------------------|
E|-------------------------------|-------------------------------|


 Dmaj9#5
e|0---0-- 0------ 0------ 0---0--|0---0-- 3-P-0-- ----0-- 0------|
B|2---2---2-------2-------2---2--|2---2---2-----------2---2------|
G|3---3---3-------3-------3---3--|3---3---3-------3---3---3------|
D|0---------------0--------------|0---------------0--------------|
A|-------------------------------|-------------------------------|
E|-------------------------------|-------------------------------|


 Amsus4D7sus4Amsus4
e|0------ 0---0-- ----0-- 0------|3------ 0---0-- ------- 0------|
B|1-------1---1-------1---1------|1-------1---1-------1---1------|
G|2-------2---2---2---2---2------|2-------2---2-------2---2------|
D|0---------------0--------------|0-------------------0----------|
A|-------------------------------|-------------------------------|
E|-------------------------------|-------------------------------|


Em7 E Em7 E ....
e|0------ 0------ 0------ 0---0--|0------ 0------ 0------ 0------|
B|0-------0-------0-------0---0--|0-------0-------0-------0------|
G|0-H-1---1-------0-H-1---1---1--|0-H-1---1-------0H1-----1------|
D|0-H-2---2-------0-H-2---2---2--|0-H-2---2-------0H2-----2------|
A|2-------2-------2-------2---2--|2-------2-------2-------2------|
E|0-------0-------0-------0---0--|0-------0-------0-------0------|             


01:02

e|0------ 0------ 0------ 0------|0------ 0------ 0------ -------|
B|3-------3-------3-------3------|3-------3-------3--------------|
G|4-------4-------4-------4------|4-------4-------4--------------|
D|0---------------0--------------|0---------------0--------------|
A|-------------------------------|-------------------------------|
E|-------------------------------|-------------------------------|

Oooooooooooooooooooooooooooooooooooooooohhhh Ooo

e|0------ 0------ 0---0-- 0------|0------ 0---0-- 0---0-- 0------|
B|2-------2-------2---2---2------|2-------2---2---2---2---2------|
G|3-------3-------3---3---3------|3-------3---3---3---3---3------|
D|0---------------0--------------|0---------------0--------------|
A|-------------------------------|-------------------------------|
E|-------------------------------|-------------------------------|

oooooooooooooooooooohhhhwooooooooooooooooooohhhhyeah

e|0------ 0---0-- 0---0-- 0------|0---0-- 0------ 0------ 0------|
B|1-------1---1---1---1---1------|1---1---1-------1-------1---0--|
G|0-H-2---2---2---0-H-2---2------|2---2---0-------2-------2---0-H|
D|0---------------0-------0------|0---------------0-----------0-H|
A|-------------------------------|----------------------------0-H|
E|-------------------------------|----------------------------0--|

Gonna be a great day

(.

e|------- ------- ------- 3------|------- ------- ------- -------|
B|0-------0----------------------|-------------------------------|
G|1-------1----------------------|-------------------------------|
D|2-------2----------------------|-------------------------------|
A|2-------2----------------------|-------------------------------|
E|0-------0---------------0------|-------------------------------|         

And it won't be long,
01:13
 AD
e|------- ------- ------- -------|------- ------- ------- -------|
B|2-------2---2---2-------3------|----3---3-------3-------3------|
G|2-------2---2---2-------2------|----2---2-------2-------2------|
D|2-------2---2---2-------4------|----4---4-------4-------4------|
A|0-------0---0---0-------0------|----0---0-------0-------0------|
E|-------------------------------|-------------------------------|

Oh, no it

 A7D
e|------- ------- ------- -------|------- ------- ------- -------|
B|5-------5-------5-------3------|----3---3-------2--------------|
G|2-------2-------2-------2------|----2---2-------2--------------|
D|5-------5-------5-------4------|----4---4-------2--------------|
A|0-------0-------0-------0------|----0---0-------0--------------|
E|-------------------------------|-------------------------------|

won't be long It won't be long

 EA
e|------- ------- ------- -------|------- ------- ------- -------|
B|-------------------------------|-------------------------------|
G|1---------------1-------2------|2---2---2-------2-------2------|
D|2---------------2-------2------|2---2---2-------2-------2------|
A|2---------------2-------4------|4---4---4-------4-------4------|
E|0---------------0-------0------|0---0---0-------0-------0------|

Oh, no it

 E7AE
e|------- ------- ------- -------|------- ------- ------- -------|
B|-------------------------------|-------------------------------|
G|4-------4---4---4-------2------|--------2-------1-------1------|
D|2-------2---2---2-------2------|--------2-------2-------2------|
A|5-------5---5---5-------4------|--------4-------2-------2------|
E|0-------0---0---0-------0------|--------0-------0-------0------|        

won't be long It won't be long,

e|------- ------- ------- -------|------- ------- ------- -------|
B|2-------2-------2-------3------|3---3---3-------3-------3------|
G|2-------2-------2-------2------|2---2---2-------2-------2------|
D|2-------2-------2-------4------|4---4---4-------4-------4------|
A|0-------0-------0-------0------|0---0---0-------0-------0------|
E|-------------------------------|-------------------------------|

Oh, no it

e|------- ------- ------- -------|------- ------- ------- -------|
B|5-------5---5---5-------3------|--------3-------2--------------|
G|2-------2---2---2-------2------|--------2-------2--------------|
D|5-------5---5---5-------4------|--------4-------2--------------|
A|0-------0---0---0-------0------|--------0-------0--------------|
E|-------------------------------|-------------------------------|              

won't be long it won't be long

01:30
 E7
e|0------ 0------ 0------ 0---0--|0---0-- 0------ 0------ -------|
B|3-------3-------3-------3---3--|3---3---3-------3--------------|
G|4-------4-------4-------4---4--|4---4---4-------4--------------|
D|0---------------0--------------|0---------------0--------------|
A|-------------------------------|-------------------------------|
E|-------------------------------|-------------------------------|

Ooooooooooooooo

 Dmaj9#5
e|0------ 0------ 0------ 0---0--|0---0-- 0------ 0---0-- -------|
B|2-------2-------2-------2---2--|2---2---2-------2---2----------|
G|3-------3-------3-------3---3--|3---3---3-------3---3----------|
D|0---------------0--------------|0---------------0--------------|
A|-------------------------------|-------------------------------|
E|-------------------------------|-------------------------------|

oooooooooooooooohhhh Oooooooooooooooohoo

 Amsus4
e|0------ 0------ 0------ 0---0--|0---0-- 0------ 0------ 0------|
B|1-------1-------1-------1---1--|1---1---1-------1-------1------|
G|2-------2-------2-------2---2--|2---2---2-------2-------2------|
D|0-------0-------0-------0---0--|0---0---0-------0-------0------|
A|-------------------------------|-------------------------------|
E|-------------------------------|-------------------------------|

oooooooooooooooohuuuuuuuuuuuuuuuuuhhhhhhyeah

 Em7E
e|------- 0------ 0------ -------|------- ------- 0------ -------|
B|0-------0-------0-------0---0--|0-------0-------0-------0------|
G|0H1-----1-------1-------1---1--|2-------1-------1-------1------|
D|0H2-----2-------2-------2---2--|2-------2-------2-------2------|
A|2-------2-------2-------2---2--|2-------2-------2-------2------|
E|0-------0-------0-------0---0--|0-------0-------0-------0------|         


01:41

e|------- ------- 0------ -------|------- ------- 0------ -------|
B|--------0-------3--------------|--------3-------3-------3------|
G|--------4-------4--------------|--------4-------4-------4------|
D|0---------------0--------------|0---------------0--------------|
A|-------------------------------|-------------------------------|
E|-------------------------------|-------------------------------|          

When you're wide awake

e|0------ 0---0-- 0------ 0------|0------ 0---0-- 0------ 0------|
B|2-------2---2---2-------2------|2-------2---2---2-------2------|
G|3-------3---3---3-------3------|3-------3---3---3-------3------|
D|0---------------0--------------|0---------------0--------------|
A|-------------------------------|-------------------------------|
E|-------------------------------|-------------------------------|                

Say it for goodness sake

e|0------ 0---0-- 0---0-- 0------|0------ 0---0-- 0---0-- 0------|
B|1-------1---1---1---1---1------|1-------1---1---1---1---1------|
G|2-------2---2---2---2---2------|2-------2---2---2---2---2------|
D|0---------------0--------------|0---------------0--------------|
A|-------------------------------|-------------------------------|
E|-------------------------------|-------------------------------|

It's gonna be a great day.

e|0------ 0------ 0------ 0------|0------ 0---0-- 0------ 0------|
B|0-------0-------0-------0------|0-------0---0---0-------0------|
G|0H1-----1-------0H1-----1------|0H1-----1---1---0H1-----1------|
D|0H2-----2-------0H2-----2------|0H2-----2---2---0H2-----2------|
A|2-------2-------2-------2------|2-------2---2---2-------2------|
E|0-------0-------0-------0------|0-------0---0---0-------0------|               


01:52

e|0------ 0------ 0------ ----0--|0------ 0------ 0------ -------|
B|3-------3-------3-----------3--|3-------3-------3--------------|
G|4-------4-------4-----------4--|4-------4-------4--------------|
D|0---------------0--------------|0---------------0--------------|
A|-------------------------------|-------------------------------|
E|-------------------------------|-------------------------------|

While you're standing there

e|0------ 0---0-- 0---0-- 0------|0------ 0---0-- 0---0-- 0------|
B|2-------2---2---2---2---2------|2-------2---2---2---2---2------|
G|3-------3---3---3---3---3------|3-------3---3---3---3---3------|
D|0---------------0--------------|0---------------0--------------|
A|-------------------------------|-------------------------------|
E|-------------------------------|-------------------------------|                 

Get up and grab a chair,

e|0------ 0---0-- 0---0-- 0------|0------ 0---0-- 0------ 0------|
B|1-------1---1---1---1---1------|1-------1---1---1-------1------|
G|2-------2---2---2---2---2------|2-------2---2---2-------2------|
D|0---------------0--------------|0---------------0--------------|
A|-------------------------------|-------------------------------|
E|-------------------------------|-------------------------------|

It's gonna be a great day.

(.
 Em
e|------- ------- ------- 3------|------- ------- ------- -------|
B|0-------0---0---0--------------|-------------------------------|
G|1-------1---1---1--------------|-------------------------------|
D|2-------2---2---2--------------|-------------------------------|
A|2-------2---2---2--------------|-------------------------------|
E|0-------0---0---0-------0------|-------------------------------|         


B Bend
R Release
/ Slide up
\ Slide down
H Hammer-on
P Pull-off
~ Vibrato
+ Harmonic
x Mute note
. Play note like a dot in standard notation
^ Ties two notes together
(. Pause

END

+--------------------------------------------------------------------------+

| This file is the author's own work and represents their interpretation |
| of the song. You may only use this file for private study, scholarship, |
| or research. |
+--------------------------------------------------------------------------+


Ultimate-Guitar.Com © 2005


A A7 Amsus4 D D7sus4 E E7 Em Em7
variations - click chord images
Transpose chords:
Tuning:
Cool service:
View: Size:
A  A  A
Rating:
Layout:
  • Currently 1/5 Stars.
  • 1
  • 2
  • 3
  • 4
  • 5
 
Accuracy:
  • Currently 1/5 Stars.
  • 1
  • 2
  • 3
  • 4
  • 5
 
click stars to rate
Chordie recommends:
Get acoustic guitar lessons and electric guitar lessons at JamPlay.com
Songbook:
Login to add this song to your songbook
Support the artist
Preview/buy this song
MSN Music
Why this non-profit ad?

 
login to add comments/video/corrections