How Deep Is Your Love

John Frusciante

----------

---------------
---------------------------------------------------------------------------

 -----
 Intro (Repeat 2x)
 -----

 EbEbmaj7Abmaj7Bbsus4
e|---x----------------3-3---3----------------------------------------------|
B|-8-8-8-8---8-8-8-8--4-4-4-4--x-x-x---------------------------------------|
G|-8-8-8-8-7-7-7-7-7--5-5-5-5--8-8-8-8-------------------------------------|
D|-8-8-8-8---8-8-8----5-5-5----8-8-8---------------------------------------|
A|-6---------6-6------x--------8-8-8-8-------------------------------------|
E|--------------------4--------6-------------------------------------------|


"Aaaaah"
"Howwwaaa"

 -----
 Verse
 -----

 EbGmFmCm
e|---x---------------------------------------------------------------------|
B|---8----3----9-----x-----------------------------------------------------|
G|---8----3----10----x-----------------------------------------------------|
D|---8----5----10----x-----------------------------------------------------|
A|-6----5----8-----10------------------------------------------------------|
E|------3----------8-------------------------------------------------------|


"You know your eyes in the morning sun"

 FmBbsus4
e|---x---------------------------------------------------------------------|
B|---9--x-x-x-x------------------------------------------------------------|
G|---10-x-x-x-x-----8-8-8-8------------------------------------------------|
D|---10-x-x-x-------8-8-8-8------------------------------------------------|
A|-8----------------8------------------------------------------------------|
E|----------------6--------------------------------------------------------|


"I feel you touch me in the pouring rain"

 EbGmCm
e|---x---------------------------------------------------------------------|
B|---8----3----4-4---------------------------------------------------------|
G|---8----3----5-5---------------------------------------------------------|
D|---8----5----5-5---------------------------------------------------------|
A|-6----5----3-------------------------------------------------------------|
E|------3------------------------------------------------------------------|


"And the moment that you wander far from me"

 FmBbsus4
e|-------------------------------------------------------------------------|
B|---1-1--1--4-4-4-4-------------------------------------------------------|
G|---3-3--3--3-3-3-3-------------------------------------------------------|
D|---3-3--3--x-x-x-x-------------------------------------------------------|
A|-3---------1-1---1-------------------------------------------------------|
E|-1-----------------------------------------------------------------------|


"I wanna feel you in my arms again"

Ab Gm Fm F5(Fm tonality)

e|-------------------------------------------------------------------------|
B|-4-4-4-4-4--3-3-3--1-1-1--6-6-6-6----------------------------------------|
G|-5-5-5-5-5--3-3-3--1-1-1--5-5-5-5----------------------------------------|
D|-6-6-6-6-6--5-5-5--3-3-3--3-3-3-3----------------------------------------|
A|-6-6-6-6-6--5-5-5--3-3-3-------------------------------------------------|
E|-4----------3-3-3--1-1-1-------------------------------------------------|


"And you come to me on a summer breeze"
"Keep me warm in your love and then softly leave"

 GmBbsus4
e|-------------------------------------------------------------------------|
B|-3-3-3-3-3---------------------------------------------------------------|
G|-3-3-3-3-3--8-8-8-8-8----------------------------------------------------|
D|-5-5-5-5-5--8-8-8-8-8----------------------------------------------------|
A|-5-5-5-5-5--8-8-8-8-8----------------------------------------------------|
E|-3-3-3-3-3--6------------------------------------------------------------|


"And its me you need to show"

------

Chorus
------


 EbEbmaj7Abmaj7Abm6
e|---x----------------3-3---3--4-4-4-4-------------------------------------|
B|-8-8-8-8---8-8-8-8--4-4-4-4--6-6-6-6-------------------------------------|
G|-8-8-8-8-7-7-7-7-7--5-5-5-5--4-4-4-4-------------------------------------|
D|-8-8-8-8---8-8-8----5-5-5----4-4-4---------------------------------------|
A|-6---------6-6------x----------------------------------------------------|
E|--------------------4----------------------------------------------------|


"How deep is your love, how deep is your love"
"I really need to learn"

 EbGbmaj7C7
e|---x------6-6-6-6--7-7-7-7---7-------------------------------------------|
B|-8-8-8-8--6-6-6-6--5-5-5-5-5-5-------------------------------------------|
G|-8-8-8-8--6-6-6-6--5-5-5-5-5-5-------------------------------------------|
D|-8-8-8-8--4-4-4-4--5-5-5-5-5---------------------------------------------|
A|-6-----------------3-3---------------------------------------------------|
E|-------------------------------------------------------------------------|


"Cause we're leaving in a world of fools"
"Breaking us down, when they all should let us.."

 FmAbm
e|-------------------------------------------------------------------------|
B|-1-1-1--4-4-4-4----------------------------------------------------------|
G|-3-3-3--4-4-4-4----------------------------------------------------------|
D|-3-3-3--5-5-5-5----------------------------------------------------------|
A|-3-3-3--5-5-5-5----------------------------------------------------------|
E|-1-1----4-4--------------------------------------------------------------|


"..be"
"We belong to you and me"

 EbGmBbsus4Eb
e|---x---------------------------------------------------------------------|
B|---8----3-----------------------8----------------------------------------|
G|---8----3--8-8-8-8-8-8-8-8-8--8-8----------------------------------------|
D|---8----5--8-8-8-8-8-8-8-8-8--8-8----------------------------------------|
A|-6----5----8-8-8-8-8-8-8-8-8--6-6----------------------------------------|
E|------3----6-6-6-----6---------------------------------------------------|


"La la la la la"
"Aaaaaaaaah"

---End Tab---


END

+--------------------------------------------------------------------------+

| This file is the author's own work and represents their interpretation |
| of the song. You may only use this file for private study, scholarship, |
| or research. |
+--------------------------------------------------------------------------+


Ultimate-Guitar.Com © 2005


Abm Abm6 Abmaj7 Bbsus4 C7 Cm Eb Ebmaj7 Fm Gbmaj7 Gm
variations - click chord images
Transpose chords:
Tuning:
Cool service:
View: Size:
A  A  A
Rating:
Layout:
  • Currently 3.5/5 Stars.
  • 1
  • 2
  • 3
  • 4
  • 5
 
Accuracy:
  • Currently 3/5 Stars.
  • 1
  • 2
  • 3
  • 4
  • 5
 
click stars to rate
Chordie recommends:
Check out JamPlay.com for online video guitar lessons
Songbook:
Login to add this song to your songbook
Support the artist
Preview/buy this song
MSN Music
Why this non-profit ad?

 
login to add comments/video/corrections