eToCache5 = ""; ?> Blue Night by Michael Learns To Rock - guitar chords, guitar tabs and lyrics - chordie
  E--------8-7-5------------------------------------8-7-5---------

B--5-7-8------------------12-10-8-10-7-8--5-7-8---------8-7-8---
G----------------7-7-9-12---------------------------------------
D---------------------------------------------------------------
A---------------------------------------------------------------
E---------------------------------------------------------------

 CGD
  Lately you have been asking me
 GDEm
  If all my words are true
 CGDG
  Don't you know I'll do anything for you

 CGD
  Sometimes I haven't been good to you
 GDEm
  Sometimes I've made you cry
 CGD
  And I am sorry for everything
 CD
  But I promise you girl, I promise you this

Chorus :

 GCDG
  When the blue night is over my face
 EmCDEm
  On the dark side of the world in space
 GCBEm
  When I'm all alone with the stars above
 CDG
  You are the one I love

 CGD
  So there's no need to worry girl
 GDEm
  My heart is sealed for you
 CGD
  And no one's gonna take it away
 CD
  Cos' I promise you girl, I promise you this

(Chorus)

 DCDCDEmG
  Your voice is calling to me in my dreams
 DCDCDB7
  My love is stronger than it's ever been

Solo:

 GDEmDEmCGD

  E-----------------------------------------------------------------------
  B--7h8-4h5-3------------------------------------------------------------
  G-------------0-0h2p0-3h4-2-0-2-0--------------------------0-2-2h4-2----
  D---------------------------------4-4h5--4h5-4-0-0h2-4h5-2--------------
  A-----------------------------------------------------------------------
  E-----------------------------------------------------------------------


 EmGD
  E-----------------------------------------------------------------------
  B--4h5-8-11h12-10-8-8h10------------------------------------------------
  G-----------------------------------------------------------------------
  D-----------------------------------------------------------------------
  A-----------------------------------------------------------------------
  E-----------------------------------------------------------------------


(Chorus) x 2

 GCBEm
  When I'm all alone with the stars above
 CDG
  You are the one I love

Enjoy the song...any comments email to shao84sg@yahoo.com.sg

END

+--------------------------------------------------------------------------+

| This file is the author's own work and represents their interpretation |
| of the song. You may only use this file for private study, scholarship, |
| or research. |
+--------------------------------------------------------------------------+


Ultimate-Guitar.Com © 2005


B B7 C D Em G
variations - click chord images
Transpose chords:
Tuning:
Cool service:
View: Size:
A  A  A
Rating:
Layout:
  • Currently 4.7/5 Stars.
  • 1
  • 2
  • 3
  • 4
  • 5
 
Accuracy:
  • Currently 3.1/5 Stars.
  • 1
  • 2
  • 3
  • 4
  • 5
 
click stars to rate
Chordie recommends:
Learn to play this song & others via video guitar lessons at JamPlay.com
Songbook:
Login to add this song to your songbook
Support the artist
Preview/buy this song
MSN Music
Why this non-profit ad?

 
login to add comments/video/corrections