"yes"; ?> Fuck Her Gently by Tenacious D - guitar chords, guitar tabs and lyrics - chordie

Fuck Her Gently

Tenacious D

e|--2------2--------5-----5--------3----3----------------|

B|------------------------------------------------2-2h3--|
G|---2-------2-------6------6-------4-----4------2-------|
D|-0----0------0--4-----4-----4---2---2-----2---2--------|
A|--------------------------------------------0----------|
E|-------------------------------------------------------|
e|--2------2--------5-----5--------3----3----------------|
B|------------------------------------------------2-2h3--|
G|---2-------2-------6------6-------4-----4------2-------|
D|-0----0------0--4-----4-----4---2---2-----2---2--------|
A|--------------------------------------------0----------|
E|-------------------------------------------------------|
e|--2------2--------5-----5--------3----3----------------|
B|------------------------------------------------2-2h3--|
G|---2-------2-------6------6-------4-----4------2-------|
D|-0----0------0--4-----4-----4---2---2-----2---2--------|
A|--------------------------------------------0----------|
E|-------------------------------------------------------|

 BmGBmG
 Sometimes you've got to squeeze, sometimes you've got to say please,
 DA
 sometimes you got to say hey,

 e|--2------2--------5-----5--------3----3----------------|
 B|------------------------------------------------2-2h3--|
 G|---2-------2-------6------6-------4-----4------2-------|
 D|-0----0------0--4-----4-----4---2---2-----2---2--------|
 A|--------------------------------------------0----------|
 E|-------------------------------------------------------|

I'm gonna fuck you softly I'm gonna screw you gently.

e|--2------2--------5-----5--------3----3----------------|
B|------------------------------------------------2-2h3--|
G|---2-------2-------6------6-------4-----4------2-------|
D|-0----0------0--4-----4-----4---2---2-----2---2--------|
A|--------------------------------------------0----------|
E|-------------------------------------------------------|

I'm gonna hump you sweetly. I'm gonna ball you

 A
discretely!

 BmG
 And then you say hey I brought you flowers,

 DA
 And then you say wait a minute sally,
 BmGE
 I think I've got something in my teeth could you get it out for me
 A
 That's fuckin' teamwork.

e|--2------2--------5-----5--------3----3----------------|
B|------------------------------------------------2-2h3--|
G|---2-------2-------6------6-------4-----4------2-------|
D|-0----0------0--4-----4-----4---2---2-----2---2--------|
A|--------------------------------------------0----------|
E|-------------------------------------------------------|

What's your favorite posish?
That's cool with me, it's not my favorite, but I'll do it for you.

 DF#m
 What's your favorite dish?
 EmA
I'm not gonna cook it, but I'll order it from Zanzabar!

 BmG
And then I'm gonna love you completely,
 F#A
And then I'll fuckin' fuck you descretely,
 BmG
 And then I'll fuckin' bone you completely,
 F#EACGD
But then, I'm gonna fuuuuuuck youuu haaaaaaaaaaaaaaaarrrrd.

e|-3p2----|
B|----3-3-|
G|-----2--|
D|--------|
A|--------|
E|--------|


 Bb7CD
 Haaaaaaaaaaaaaaaaaaarrrrd!

Chord Legend:

 BmGDAECEmBb7
e|---2---3---3---0-------0---------3|
B|---3---3---2---2---0---1----0----2|
G|---4---0---3---2---1---0----0----3|
D|---4---0---0---2---2---2----2----0|
A|-------2-------0---2---3----2----2|
E|-------3-----------0---0----0----2|


END

+--------------------------------------------------------------------------+

| This file is the author's own work and represents their interpretation |
| of the song. You may only use this file for private study, scholarship, |
| or research. |
+--------------------------------------------------------------------------+


Ultimate-Guitar.Com © 2005


A Bb7 Bm C D E Em F# F#m G
variations - click chord images
Transpose chords:
Tuning:
Cool service:
View: Size:
A  A  A
Rating:
Layout:
  • Currently 3/5 Stars.
  • 1
  • 2
  • 3
  • 4
  • 5
 
Accuracy:
  • Currently 3.3/5 Stars.
  • 1
  • 2
  • 3
  • 4
  • 5
 
click stars to rate
Chordie recommends:
Check out these online guitar lessons
Songbook:
Login to add this song to your songbook
Support the artist
Preview/buy this song
MSN Music
Why this non-profit ad?

 
login to add comments/video/corrections