Chordie logo


Awake   Secondhand Serenade



| Ultimate Guitar Tabs Archive - your #1 source for tabs!               |
| http://www.ultimate-guitar.com/                                       |
|                                                                       |
| Over 200,000 guitar, guitar pro and bass tabs! Also lessons, news,    |
| columns and guitar forums!                                            |


Artist: Secondhand Serenade
Song: Awake


this should be pretty close to perfect. feel free to e-mail me
at ktfadul@vt.edu with any questions, comments, suggestions,
corrections or praise. praise would be the best way to go ;]

CAPO I

Intro/Verse:
e|--------------------------------------------------------------|
B|--------0------------0------------0------------0--------------|
G|------4---4--------4---4--------3---3--------3---3------------|
D|----4-------4----4-------4----4-------4----4-------4----------|
A|--2------------2----------------------------------------------|
E|----------------------------4------------4--------------------|

Prechorus:
e|--------------------------------------------------------------|
B|---------------------0------------0---0--------0---0----------|
G|--------4-1------------3------------6------------6------------|
D|------2-----2------4-----4------6------------6----------------|
A|----2------------4------------6------------6------------------|
E|--0------------2------------4------------4--------------------|
 Chords: 022100, 244322, 466444

Chorus:
e|--------------------------------------------------------------|
B|--------0------------0------------0----------0----------------|
G|------4---4--------4---1------------3--------------3----------|
D|----1-------1----2-------2------4-----4----6-----4------------|
A|--2---------------------------4-------------------------------|
E|---------------0------------2------------4-----2--------------|

e|--------------------------------------------------------------|
B|----------------------------------0-----0-----0---------------|
G|--------4-1----------4-1------------3-----3-----3-------------|
D|------2-----2------2-----2------4-----4-----4-----4-----------|
A|----2------------2------------4-------------------------------|
E|--0------------0------------2---------------------------------|
 Chords: x24442, 022100, 244322, 466444 > 244322
	 022100, 244322

Interlude:
e|--------------------------------------------------------------|
B|--------0---------------0*------------------------------------|
G|------4----3h4--------3----3h4--------------------------------|
D|----4----------4----4----------4------------------------------|
A|--2-----------------------------------------------------------|
E|------------------4-------------------------------------------|
 *end here second time through

Bridge:
466444, 022100, x24442, 244322 (3x)
022100, 244322

End:
e|--------------------------------------------------------------|
B|--------0-----------------------------------------------------|
G|------4-------------3~----------------------------------------|
D|----4------------2--4~----------------------------------------|
A|--2------------2----4~----------------------------------------|
E|-----------0-4------------------------------------------------|

Progression:
4x Intro/Verse

2x Prechorus
2x Chorus
2x Interlude
2x Intro/Verse
2x Prechorus (chords)
2x Chorus (chords)
1x Bridge
2x Chorus (chords)
1x End

END

+--------------------------------------------------------------------------+
| This file is the author's own work and represents their interpretation   |
| of the song. You may only use this file for private study, scholarship,  |
| or research.                                                             |
+--------------------------------------------------------------------------+



Important: The song above is NOT stored on the Chordie server. The original song is hosted at www.ultimate-guitar.com. Chordie works as a search engine and provides on-the-fly formatting. Chordie does not index songs against artists/composers will. To remove this song please click here.

This song is displayed as text-only. Transposing and tuning is only available for chordpro-songs.

Login - add to songbook

Rating click stars to rate

Layout
Accuracy

SHARE PAGE  




You need to log in to post comments