Great Gig In The Sky

Pink Floyd









 4/4
  Gtr I
|-----------------|----------------------|
|-7---7---7---7---|-10---10----------10--|
|-7---7---7---7---|------------14--------|
|---9---9---9---9-|--9-9--9-10-12-10--9--|
|-----------------|----------------------|
|-----------------|----------------------|


 Bb5/FF
|-------------10----------------|-----------------------------|
|-11----11-------------13-11----|-10----10----13----10-8------|
|-10----10----10-------------10-|-10----10----10----10---10---|
|----12----12----12-12-12-------|----10----10----10------10---|
|-------------------------------|-----------------------------|
|-------------------------------|-----------------------------|


 BbDsus2/Bb
|-------------------------|-0---0---0---0---|
|-------------------------|-3---3---3---3---|
|-10----10----10-------10-|-3---3---3---3---|
|-12----12----12----12----|---5---5---5---5-|
|-13-10-13-10-13-10-13-10-|-----------------|
|-------------------------|-----------------|

|
| Gtr II
|-------------------------|---------3-------|
|--------------3--------3S|=5---------------|
|--------------3--------3S|=5---------------|
|-------------------------|-----------------|
|-------------------------|-----------------|
|-------------------------|-----------------|


 BbDsus2/Bb

|-------------------|-0---0---0-------|
|-6---6---6---6-----|-3---3---3-------|
|-7---7---7---7-7---|-3---3---3-----3-|
|-8-5-8-5-8-5-8---5-|---5---5---5-5---|
|-------------------|-----------------|
|-------------------|-----------------|

|
|-3-----------------|-----------------|
|-3-------3-------3S|=5---------------|
|---------3-------3S|=5---------------|
|-------------------|-----------------|
|-------------------|-----------------|
|-------------------|-----------------|


 CDmBbD#5/Bb
|-----------------|--------------------|-----------------|-----------------|
|-5---5---5---5---|--6---6---6----6----|-----3---3---3---|-4---4---4---4---|
|-5---5---5-----5-|--7---7---7----7----|-7---3---3---3---|-3---3---3---3---|
|---7---7---7-----|----7---7---7-----7-|-8-5---5---5---5-|---5---5---5---5-|
|-----------------|--------------------|-----------------|-----------------|
|-----------------|--------------------|-----------------|-----------------|

|
|-5---------------|----------3-5-(5)---|-----------------|-----------------|
|-5-----------5S==|=10-----------------|-3-----------3S==|=8---------------|
|-------------5S==|=10-----------------|-3-----------3S==|=8---------------|
|-----------------|--------------------|-----------------|-----------------|
|-----------------|--------------------|-----------------|-----------------|
|-----------------|--------------------|-----------------|-----------------|


 D#/GDm
|----------------------|---------------------|
|-4---4---4----------4-|-6---6-----6-----8---|
|-0-5-0-5-0-5----5-----|-7---7-----7-----8---|
|----------------7-----|---7-----7---8-8---7-|
|----------------------|---------------------|
|----------------------|---------------------|

|
|----------------------|---------------------|
|-8-----------8-(8)-10-|-------6S==8---------|
|-8-----------8-(8)-10-|-7-----6S==8---------|
|----------------------|---------------------|
|----------------------|---------------------|
|----------------------|---------------------|
|------------6---6-10-13----13-|-18-------------------------|
|----------6---6---------15----|-----18-------18------------|
|--------7---------------------|--------19-------19---------|
|--8---8-----------------------|-----------20-------20------|
|----8-------------------------|-----------------------20---|
|------------------------------|----------------------------|

|
|------------------------------|----------------------------|
|-15---------------------------|--3/------------------------|
|-15---------------------------|--3/------------------------|
|------------------------------|----------------------------|
|------------------------------|----------------------------|
|------------------------------|----------------------------|


Chorus
 Bb/GGm/FBb/GGm/EBb/GG5/FBb/G
|-10--10------6---10-----|-10---10---10----------10---|-10--10--10--10----|
|-11--11------8---11-----|-11---11---11----------11---|-11---8---8--11----|
|-12--12-----10---12-----|-12---12---12----------12---|-12--10--10--12----|
|------------------------|-14---14---14----------14---|-------------------|
|------------------------|----------------------------|-------------------|
|------------------------|----------------------------|-------------------|

|
| Gtr III

|--3---------------3-(3)S|==5-3-(3)--(3)-6-(6)-8------|-------------------|
|------3-----------3-(3)S|==5---------------------8---|--8-------3-----3S=|
|--------3---------------|--------------------------9-|--7-------3-----3S=|
|----------5-(5)---------|----------------------------|-------------------|
|------------------------|----------------------------|-------------------|
|------------------------|----------------------------|-------------------|


 Gm/E
|-10--10-------10----------10----------|
|-11--11-------11----------11----------|
|-12--12-------12----------12----------|
|-14--14-------14----------14----------|
|--------------------------------------|
|--------------------------------------|

|
|---------8-10-15-15-13----------------|
|--5--(5)---------------15-13-15-------|
|--5--(5)------------------------14s15-|
|--------------------------------------|
|--------------------------------------|
|--------------------------------------|


 Gm/FGm/E
|--------10----10----10-----------|-10-----10---10---10---|
|-11-----11----11----11-----------|-11-----11---11---11---|
|-12-----12----12----12-----------|-12-----12---12---12---|
|-15------------------------------|-14-----14---14---14---|
|---------------------------------|-----------------------|
|---------------------------------|-----------------------|

|
|---------------------------------|--------------8-8--8-8-|
|---------------------------11----|-11----------------7-8-|
|-15S12-(12)--(12)--(12)-12----12-|----12-(12)------------|
|-17------------------------------|-----------------------|
|---------------------------------|-----------------------|
|---------------------------------|-----------------------|


 Gm/FG5/FBb/G
|---------10----------10-----------10-----------|
|--11-----11-----------8-----------11-----------|
|--12-----12----------10-----------12-----------|
|--15-------------------------------------------|
|-----------------------------------------------|
|-----------------------------------------------|

|
|------15-13------------------------------------|
|------------15-------13----13b14r(13)----------|
|-(17)----------15-12----12------------12-10----|
|-(17)---------------------------------------12-|
|-----------------------------------------------|
|-----------------------------------------------|


 Gm/EGm/FBb/FG5/F
|-10--10--10--10----|-----10--------10---10-------|
|-11--11--11--11----|-11--11--------11----8-------|
|-12--12--12--12----|-12--12--------10---10-------|
|-14--14--14--14----|-15--------------------------|
|-------------------|-----------------------------|
|-------------------|-----------------------------|

|
|----------------12-|-17--15s17s15-(15)--15-15-17-|
|---------15--15----|-----------------------15----|
|-------------------|-----------------------------|
|-14----------------|-----------------------------|
|-------------------|-----------------------------|
|-------------------|-----------------------------|


 Gm/EBb/GG5/FBb/G

|-10--------10----10-----10--|-10-----10---10-----10----|
|-11--------11----11-----11--|-11------8----8-----11----|
|-12--------12----12-----12--|-12-----10---10-----12----|
|-14--------14----14-----14--|--------------------------|
|----------------------------|--------------------------|
|----------------------------|--------------------------|

|
|-17-15-15-(15)--(15)--------|-15b16r=====(15)-13-------|
|----------------------------|--------------------15----|
|---------------------14-14--|-----------------------15-|
|---------------------14-14--|--------------------------|
|----------------------------|--------------------------|
|----------------------------|--------------------------|


 Gm/EGm/F
|-10--10----10--10--|-----10----10----------10-----------|
|-11--11----11--11--|-11--11----11----------11-----------|
|-12--12----12--12--|-12--12----12----------12-----------|
|-14--14----14--14--|-15---------------------------------|
|-------------------|------------------------------------|
|-------------------|------------------------------------|

|
|-------------------|-15-----15-13-----------------------|
|-13-----15-17------|--------------15-13-11----------11--|
|-------------------|-----------------------12----12-----|
|-------------------|--------------------------12--------|
|-------------------|------------------------------------|
|-------------------|------------------------------------|


 Gm/EGm/FG5/FBb/G
|-10--10--10--10-------|-----10--10-----------------------10------------|
|-11--11--11--11-------|-11--11---8-----------------------11------------|
|-12--12--12--12-------|-12--12--10-----------------------12------------|
|-14--14--14--14-------|-15---------------------------------------------|
|----------------------|------------------------------------------------|
|----------------------|------------------------------------------------|

|
|---------15-----------|-15---------15b16r(15)-15b16r(15)----15b16r(15)-|
|-------------------15-|-15---------------------------------------------|
|-12----------12-14----|------------------------------------------------|
|----------------------|------------------------------------------------|
|----------------------|------------------------------------------------|
|----------------------|------------------------------------------------|


 Gm/EGm/FBb/GBb/FG5/F
|-10--10--------10---10-------|-----------10----10-----10---|
|-11--11--------11---11-------|-11--------11----11------8---|
|-12--12--------12---12-------|-12--------12----10-----10---|
|-14--14--------14---14-------|-15--------------------------|
|-----------------------------|-----------------------------|
|-----------------------------|-----------------------------|

|
|-17--15-17-15-(15)--15-15-17-|-17-15-15-(15)--(15)---------|
|-----------------------15----|-----------------------------|
|-----------------------------|---------------------14-14---|
|-----------------------------|---------------------14-14---|
|-----------------------------|-----------------------------|
|-----------------------------|-----------------------------|


 Gm/EGm/FBbm/C#
|-10-----10---10-----10----|-----------------|
|-11-----11---11-----11----|-11--11--11--11--|
|-12-----12---12-----12----|-12--12--10--10--|
|-14-----14---14-----14----|-15--15--11--11--|
|--------------------------|-----------------|
|--------------------------|-----------------|

|

|-15b16r=====(15)-13-------|-----------------|
|--------------------15----|-11------14------|
|-----------------------15-|-----------------|
|--------------------------|-----------------|
|--------------------------|-----------------|
|--------------------------|-----------------|


Outro
 C#m6Bm
|----------7---7--||-7---10----14----------|
|-11--11---7---7--||---7----12----15-------|
|--9---9---7---7--||-----------------16----|
|-11--11---9---9--||--------------------16-|
|-----------------||-----------------------|
|-----------------||-----------------------|

|
|-14------19\-----||-----------------------|
|-----------------||-----------------------|
|-----------------||-----------------------|
|-----------------||-----------------------|
|-----------------||-----------------------|
|-----------------||-----------------------|


 DAsus2/B
|--------------------|--------------------|
|----------------7---|-7---7---10---10----|
|-----------11---7---|-7---7--------------|
|-14-12-11--12-9---9-|---9---9--9-9--9-10-|
|--------------------|--------------------|
|--------------------|--------------------|


 Bb5/FF
|-----------------------|-10------------------------------|
|-------10--11----11----|----------13-11----10----10------|
|-14--------10----10----|-10-------------10-10----10------|
|-12-10--9-----12----12-|----12-12-12----------10----10---|
|-----------------------|---------------------------------|
|-----------------------|---------------------------------|


 F5BbBbadd11
|---------------------------|---------------------|
|-13----10-8----------------|-------------4---4---|
|-10----10---10-10----10----|-10-------10-7---7---|
|----10------10-12----12----|-12----12----8-5-8-5-|
|---------------13-10-13-10-|-13-10-13-10---------|
|---------------------------|---------------------|

|
| Gtr II
|---------------------------|---------------------|
|--------1S======3----------|---------------------|
|--------2S======3----------|---------------------|
|---------------------------|---------------------|
|---------------------------|---------------------|
|---------------------------|---------------------|


 BbBbadd11
|-----------------|----------------------|
|-4---4---6---6---|-6----6-----4---4-----|
|-7---7---7---7---|-7----7-7---7---7-----|
|-8-5-8-5-8-5-8-5-|-8-5--8---5-8-5-8-5---|
|-----------------|----------------------|
|-----------------|----------------------|

|
|-----------------|-0S==10---------------|
|-----------------|-0S==10---------------|
|-----------------|----------------------|
|-----------------|----------------------|
|-----------------|----------------------|
|-----------------|----------------------|


 CmDmBbD#5/Bb
|---------------------|--------------------|-----------------|-----------------|
|-4----------4----4---|---4----4---6---6---|-6---6-------3---|-3---3---4---4---|
|-7------3---5--2-5-2-|---5--2---5-7---7---|-7---7---7---3---|-3---3---3---3---|
|-8-5--5--------------|--------------7---7-|---7---7-8-5---5-|---5---5---5---5-|
|---------------------|--------------------|-----------------|-----------------|
|---------------------|--------------------|-----------------|-----------------|

|
|-----10---(10)-------|-(10)---------------|-----------------|-----6S==8-------|
|------8----(8)-------|--(8)---------------|-----------------|-----3S==5-------|
|---------------------|--------------------|-----------------|-----------------|
|---------------------|--------------------|-----------------|-----------------|
|---------------------|--------------------|-----------------|-----------------|
|---------------------|--------------------|-----------------|-----------------|


 D#/GDm
|-------------------|-----------------|
|--4----4---4---4---|-4-----4-6---6---|
|--3----3---0-5-0-5-|-0-5-5---7---7---|
|-----5---5---------|-----7-----7---7-|
|-------------------|-----------------|
|-------------------|-----------------|

|
|-(8)---------------|-----------------|
|-(5)---------------|-----5S==6-------|
|-------------------|-----5S==7-------|
|-------------------|-----------------|
|-------------------|-----------------|
|-------------------|-----------------|


 D#
|----------------------|--6----6-10-13----13-18-----------|
|--8-----8-----------6-|-----6---------15-------18--------|
|--8-----8---------7---|---------------------------19-----|
|----8-8---7-8---8-----|------------------------------20--|
|--------------8-------|----------------------------------|
|----------------------|----------------------------------|

|
|-10S========1---------|-(1)------------------------------|
|--8S========3---------|-(3)------------------------------|
|----------------------|----------------------------------|
|----------------------|----------------------------------|
|----------------------|----------------------------------|
|----------------------|----------------------------------|


 BbDsus2/BbBbDsus2/Bb
|-------------1---1---|-1---1---0---0---|-0---0-----------|-----------0---0---|
|-18----------3---3---|-3---3---3---3---|-3---3---6---6---|--6----6---3---3---|
|----19-------3-0-3-0-|-3-0-3-0-3---3---|-3---3---7---7---|--7----7---3---3---|
|-------20------------|-----------5---5-|---5---5-8-5-8-5-|--8--5-8-5---5---5-|
|----------20---------|-----------------|-----------------|-------------------|
|---------------------|-----------------|-----------------|-------------------|

|
|---------------------|-----------------|---------6-----6-|-(6)---------------|
|---------------------|-----6S==3-------|---------6-----6-|-(6)---------------|
|---------------------|-----7S==3-------|-----------------|-------------------|
|---------------------|-----------------|-----------------|-------------------|
|---------------------|-----------------|-----------------|-------------------|
|---------------------|-----------------|-----------------|-------------------|


 BbDsus2/BbBbDsus2/Bb
|-0---0-----------|-----------0---0---|-0---0-----------|---------0---0---|
|-3---3---6---6---|--6----6---3---3---|-3---3---6---6---|-6---6---3---3---|
|-3---3---7---7---|--7----7---3---3---|-3---3---7---7---|-7---7---3---3---|
|---5---5-8-5-8-5-|--8--5-8-5---5---5-|---5---5-8-5-8-5-|-8-5-8-5---5---5-|
|-----------------|-------------------|-----------------|-----------------|
|-----------------|-------------------|-----------------|-----------------|

|

|-----3-----------|-------------------|-----------------|-----------------|
|-------3-3-------|-(3)---------------|---------6-------|-----------------|
|-----------------|-------------------|---------7-------|-7-----7-9-------|
|-----------------|-------------------|-----------------|-----------------|
|-----------------|-------------------|-----------------|-----------------|
|-----------------|-------------------|-----------------|-----------------|


 BbDsus2/BbBbDsus2/Bb
|--0----0-----------|-----------0---0---|-0---0-----------|---------0---0---|
|--3----3---6---6---|--6----6---3---3---|-3---3---6---6---|-6---6---3---3---|
|--3----3---7---7---|--7----7---3---3---|-3---3---7---7---|-7---7---3---3---|
|-----5---5-8-5-8-5-|--8--5-8-5---5---5-|---5---5-8-5-8-5-|-8-5-8-5---5---5-|
|-------------------|-------------------|-----------------|-----------------|
|-------------------|-------------------|-----------------|-----------------|

|
|-----------5-------|-(5)-----5S6-------|-----------------|-----------------|
|-----------6-------|-(6)-----6-6-------|-----------------|-----------------|
|-(9)-----9---------|-------------------|-----------------|-----------------|
|-------------------|-------------------|-----------------|-----------------|
|-------------------|-------------------|-----------------|-----------------|
|-------------------|-------------------|-----------------|-----------------|


 Dsus2/BbBb/G
|-0---0---------|--------------------*|
|-3---3----6----|--(6)b7r=======(6)--*|
|-3---3----7----|--(7)b8r=======(7)--*|
|---5---5--8----|--(8)b9r=======(8)--*|
|---------10----|-(10)b11r=====(10)--*|
|---------------|--------------------*|


Tablature Legend
----------------

h - hammer-on
p - pull-off
b - bend
pb - pre-bend
r - bend release (if no number after the r, then release immediately)
/\ - slide into or out of (from/to "nowhere")
s - legato slide
S - shift slide
- natural harmonic
(n) - artificial harmonic
n(n) - tapped harmonic
~ - vibrato
tr - trill
T - tap
TP - trem. picking
PM - palm muting
\n/ - tremolo bar dip; n = amount to dip
\n - tremolo bar down
n/ - tremolo bar up
/n\ - tremolo bar inverted dip
= - hold bend; also acts as connecting device for hammers/pulls
<> - volume swell (louder/softer)
x - on rhythm slash represents muted slash
o - on rhythm slash represents single note slash

Misc Legend
-----------

| - bar
|| - double bar
||o - repeat start
o|| - repeat end
*| - double bar (ending)
: - bar (freetime)
$ - Segno
& - Coda
Tempo markers - = BPM(8/16=s8/s16), where s8 = swing 8ths, s16 = swing 16ths

***************************************************************************************
* Generated using Power Tab Editor by Brad Larsen - http://powertab.guitarnetwork.org *
***************************************************************************************

END

+--------------------------------------------------------------------------+

| This file is the author's own work and represents their interpretation |
| of the song. You may only use this file for private study, scholarship, |
| or research. |
+--------------------------------------------------------------------------+


Ultimate-Guitar.Com © 2005