Palagot Sa Kontra

Phylum

 C5B/C5A5G5
E|-x-----x--|-x-----x--|-----x-----|-----x-----|
B|-x-----x--|-x-----x--|-----x-----|-----x-----|
G|-x--o--x--|-x---o-x--|-----x-----|-----x-----|
D|-x--r--5--|-x--r--5--|-----x-----|-----x-----|
A|10-----3--|10-----2--|-----7-----|-----5-----|
E|-8-----x--|-7-----x--|-----5-----|-----3-----|


Intro:

Guitar1:

 C5B/C5A5G5
e|-----------|-----------|-----------|----------|
B|-----------|-----------|-----------|----------|
G|-----------|-----------|-----------|----------|
D|-----5---5-|-----5---5-|----5----5-|-----5---5|
A|-3-3--3-3--|-2-2--2-2--|-----------|----------|
E|---—-------|-----------|-5-5--5-5--|-3-3--3-3-|


Guitar1:

 C5B/C5A5G5
e|-------s--|------s----|-----s---|-----s----|
B|-------t--|------t----|-----t---|-----t----|
G|-------r--|------r----|-----r---|-----r----|
D|-------u--|------u----|-----u---|-----u----|
A|10--10-m--|10-10-m----|-7-7-m---|-5-5-m----|
E|-8---8----|-7--7------|-5-5-----|-3-3------|


Guitar2(lead):

 C5B/C5A5G5
e|-----------|-----------|-----------|----------|------|
B|---5--8b---|---5--8b---|----5--8b--|---5--8b--|------|
G|-5b--------|-4b--------|-----------|----------|--5---|
D|-----------|-----------|--7b-------|-5b-------|------|
A|-----------|-----------|-----------|----------|------|
E|--—--------|-----------|-----------|----------|------|


or

 C5B/C5A5G5

e|----12--15-|----12--15-|----12--15-|---12--15-|------|
B|-13b-------|-12b-------|-----------|----------|--13b-|
G|-----------|-----------|-----------|----------|------|
D|-----------|-----------|--14b------|-12b------|------|
A|-----------|-----------|-----------|----------|------|
E|--—--------|-----------|-----------|----------|------|


b-bend

Intro: C5 – B/C5 – A5 - G5

-------Verse1:------


 C5B/C5A5G5
 unsay problema nganong magparamdam gihapon ka
 C5B/C5A5G5
 ayaw ko ingnang gabasol ka karong wala na tang duha
 C5B/C5A5G5
 nakahinumdom ka nga imo kong giitsapwera
C5 B/C5 A5 G5 (hold) C5 – B/C5 – A5
sa atubangan sa amiga mong hubag kaayog mata...
G5 C5 – B/C5 – A5 – G5.....
hubag kaayog mata

-------Verse2:------


 C5B/C5A5G5
 if u only knew ang kaagi ko kadtong pagbuwag nimo nako
 C5B/C5A5G5
 pila ka buwan ang giantos ko malimtan lang ang dagway mo
 C5B/C5A5G5
 nakahinumdom ka ngad2 sa dagat sa minglanilla
C5 B/C5 A5 G5 (hold) C5 – B/C5 – A5
naglambing lambing ka sa imong crush nga murag nawng ug baka.....
G5 C5 – B/C5 – A5 -G5......
dako pa jud ug mata

-------Chorus:------


 C5B/C5A5G5
 dugay ko ra nga gitapos ang sa una
 C5B/C5A5G5
 usa ka na lang ka sumsuman sa among storya
 C5B/C5A5-G5
 dungag dungag ka lang     
 C5B/C5A5-G5
 sakit lang ka sa dughan   
C5 B/C5 A5 - G5 (hold)
unsa man gyud ng imoha?
(Repeat Intro)
palagot sa kontra

-------Verse3:------


 C5B/C5A5G5
 kahibaw ba ka nga lab kaayo ko sa uyab nako karon
 C5B/C5A5G5
 iya ko palitan kada hapon ug lami kaayo nga turon
 C5B/C5A5G5
 nakahinumdom ka nga imo kong giitsapwera
C5 B/C5 A5 G5 (hold) C5 – B/C5 – A5

sa atubangan sa amiga mong hubag kaayog mata.....
G5 C5 – B/C5 – A5 -G5......
hubag kaayog mata

-------Verse4:------

 C5B/C5A5G5
 pasensiya-ay lang ta kay di gyud ko musugot sa hangyo mo
 C5B/C5A5G5
 dba giingnan tika nga lab kaayo ko sa uyab nako karon

 C5B/C5A5G5
 pwes pauli na kay ni txt nga naa naa siya sa eskina
C5 B/C5 A5 G5 (hold) C5 – B/C5 – A5
di ko gustong magbugno mo kay di ko gwapo sama ni piolo....
G5 C5 – B/C5 – A5 -G5......
pihing akong ulo

Repeat Chorus 2x

www.bisrock.vze.com

END

+--------------------------------------------------------------------------+

| This file is the author's own work and represents their interpretation |
| of the song. You may only use this file for private study, scholarship, |
| or research. |
+--------------------------------------------------------------------------+


Ultimate-Guitar.Com © 2005


A5 C5 G5
variations - click chord images
Transpose chords:
Tuning:
Cool service:
View: Size:
A  A  A
Rating:
Layout:
  • Currently 0/5 Stars.
  • 1
  • 2
  • 3
  • 4
  • 5
 
Accuracy:
  • Currently 0/5 Stars.
  • 1
  • 2
  • 3
  • 4
  • 5
 
click stars to rate
Chordie recommends:
Get acoustic guitar lessons and electric guitar lessons at JamPlay.com
Songbook:
Login to add this song to your songbook
Support the artist
Preview/buy this song
MSN Music
Why this non-profit ad?

 
login to add comments/video/corrections